Song name
# A B C D E F G H I J K L M N O P Q R S T U V W X Y Z

Ani Difranco - Wow tab

Intro and Verse
Standard
Repeat according to song
e-7-0----------------0----------------------------0----------------------|
b-8-0-7-0-5-0-3-0---0--0-----------8-8-8---------0--0-------8------------|
g-9-0-8-0-6-0-4-0-------0----------7-7-7--------------0-----7------------|
d-----9-0-7-0-5-0-2-------2-2-2----------------2--------2-----------2----|
a-----------------2-------2-2-2----------------2--------2-----------2----|
e-----------------0-------0-0-0-0-5------5s3s2-0--------2---5-5s3s2-0----|

'Closer,closer,closer,closer.......'
Repeat according to song
e-----------------------|
b-----------------------|
g-----------------------|
d-2-2-2-7-7-------------|
a-2-2-2-8-8-------------|
e-0-0-0-8-8-------------|

2nd part of 'closer....'
Repeat according to song
e-----------------------------------|
b-----------------------------------|
g-7-7-7-12-12-12-6-6-6-6-6-6-6------|
d-7-7-7-12-12-12-6-6-6-6-6-6-6------|
a-5-5-5-10-10-10-4-4-4-4-4-4-4------|
e-----------------------------------|
Tap to rate this tab
# A B C D E F G H I J K L M N O P Q R S T U V W X Y Z