Song name
# A B C D E F G H I J K L M N O P Q R S T U V W X Y Z

Ani Difranco - Promiscuity tab

intro and verse:
Standard
Repeat as many times as needed
e---------------------------------------------------|
b-----7-7-7----7-7-7------7-7--7----7-7-7-----------|
g-----5-5-7----5-5-5------6-6--6----6-6-6-----------|
d---------------------------------------------------|
a-5-5-----5-5-5----5--------------------------------|
e----------------------5-5-----5-5-5----5-----------|

'Nature always get her way,nature always,gets her way'
e---------------------------------------------------|
b---5-5---------3-3----5---7-7-7-7--10-14-15--------|
g---5-5-------0--------6---7-7-7-7------------------|
d---------0-2---2---0-------------------------------|
a-3---------2---2-----------------------------------|
e-------3-------------s5-s7--7-7-7--8--12-----------|

'how you gonna know....'
e---------------------------------------------------|
b-7-3--2--5-2------3--------------------------------|
g-0-0--0--0-0---------------------------------------|
d--------------2-2-2--------------------------------|
a--------------2-2-2--------------------------------|
e-7-3--2---5-2---0----------------------------------|
the end of the song is that last chord
Tap to rate this tab
# A B C D E F G H I J K L M N O P Q R S T U V W X Y Z