Song name
# A B C D E F G H I J K L M N O P Q R S T U V W X Y Z

Ani Difranco - Angry Anymore tab

from Up Up Up Up Up Up
by Ani Difranco
Tuning: EBBFBE


		E B B F# B E capo 3rd
  main progression:
  G|-------0---------------------0--------0-------0----|
  D|--------------0--------------0--------0-------0----|
  A|---0h2----2p0----------------0--------0-------0----|
  D|-----------------0h4-h5------5----h4------s5-------|
  D|--------------------------0-------h4------s5-------|
  G|--------------------------0-------h4------s5-------|


  the chorus ends with this:
  G|-------0---------------------0--------0-------0-------0--|
  D|--------------0--------------0--------0-------0-------0--|
  A|---0h2----2p0----------------0--------0-------0-------0--|
  D|-----------------0h4-h5------5----h4------s5------s7-----|
  D|--------------------------0-------h4------s5------s7-----|
  G|--------------------------0-------h4------s5------s7-----|
Tap to rate this tab
# A B C D E F G H I J K L M N O P Q R S T U V W X Y Z