Song name
# A B C D E F G H I J K L M N O P Q R S T U V W X Y Z

Ani Difranco - As Is tab

-------------------------------------------------------------------------------
			     SONG NAME - Band Name
-------------------------------------------------------------------------------
Tabbed by: brrrn
Email: bryan@brrrn.com

Tuning: Standard, capo at 10th fret (chord names in relative position where when I say 
it's actually a Bb, but played like an open C chord)

    C                     G                  Am               F? (103200)
e|---------0------------|-----------------|-----------------|----------------|
B|---------1-----1------|-------0---------|-------1---------|----------------|
G|-----------------0----|-------0----0----|-------2---2-----|------2----2----|
D|------2---------------|----0------------|-----2-------2---|------3------3--|
A|--/3------------------|-----------------|--0--------------|---0------------|
E|----------------------|-3---------------|-----------------|-1--------------|

There's some slight variations on the pluckings and such, and some pull-offs when 
but the chords stay the same.

Chorus

   Am7               F?
e|-----------------|-------------------|---------------------------------------|
B|----~-------~----|-----~--------~----|---------------------------------------|
G|----0-------0----|-----0--------0----|--repeat and end with that F chord-----|
D|----2-------2-2--|-----2--------2-2--|---------------------------------------|
A|-0------00-------|-------------------|--notice there's a slight vibrato -----|
E|---------------3-|-1-1------1-1-----3|--on that 2nd fret---------------------|


ending

   C                     Gm                G                    F?
e|-0---0---0---0--0-0|------------------|-------------------|----------------|
B|-1---1---1---1--1-1|-3---3---3---3-3-3|-0---0---0---0--0-0|----------------|
G|-------------------|-3---3---3---3-3-3|-0---0---0---0--0-0|-2---2---2--2--0|
D|-------------------|------------------|-------------------|-3---3---3--3--0|
A|-3-------3------3--|------------------|-------------------|----------------|
E|-------------------|-3-------3-----3--|-3-------3------3--|-1-------1-----1|

e|-----------------------------------------------------------------------------|
B|-----------------------------------------------------------------------------|
G|repeat and end with F--------------------------------------2-----------------|
D|-----------------------------------------------------------3-----------------|
A|-----------------------------------------------------------0-----------------|
E|-----------------------------------------------------------1-----------------|


| /  slide up
|   slide down
| h  hammer-on
| p  pull-off
| ~  vibrato
| +  harmonic
| x  Mute note
===============================================================================
Tap to rate this tab
# A B C D E F G H I J K L M N O P Q R S T U V W X Y Z