Song name
# A B C D E F G H I J K L M N O P Q R S T U V W X Y Z

Ani Difranco - Dog Coffee tab

Title: Dog Coffee
Artist: Ani DiFranco
Album: Ani DiFranco
Tabbed by: Simon Says (phee@dial.pipex.com)

Standard Tuning



Verse: (repeated)
 
E|---------------------|        E|---------------------|
B|---------------------|        B|---1----1----1-------|
G|-2/5----4----2-------|        G|---0----0----0-------|
D|-3/5----5----3-------|        D|---------------------|
A|--------3------------|        A|---------------------|
E|---5---------1-------|        E|---1----1----1-------|
 
 
Bridge:
 
E|---------------------|        E|---------------------|
B|---3----4----6----8--|        B|---10-10-------------|
G|---0----0----0----0--|        G|---10-10---5--5-4/---|
D|---0-----------------|        D|----0--0---5--5-5/---|
A|---0-----------------|        A|----------------3/---|
E|---3----4----6----8--|        E|---10-10---5--5------|
Tap to rate this tab
# A B C D E F G H I J K L M N O P Q R S T U V W X Y Z