Song name
# A B C D E F G H I J K L M N O P Q R S T U V W X Y Z

Ani Difranco - Origami tab

This song relies alot on having both guitar and bass play different
parts at the same time, but I've fashioned a little acoustic version 
here that allows you you fit in the bassline to make it sound good
played just on one acoustic. Don't expect the the tab here to sound
perfectly similar to the original, but I did my best.  

Tuning: AACEBE

h = hammer-on
p = pull off
x = mute this string

VERSE:

E-------0---0-0-----0-0--------------------------|
B-------0-0-0-0h5p0-0-0--------------------------|
E--5--0---0---------0-0--------------------------|
C--5--0------------------------------------------|
A------------------------------------------------|
A------------------------------------------------|

VERSE BREAKS: ("So no matter what I think I need...")

E-------0-----------0----------------------------|
B-----1---1-------6---6--------------------------|
E--2--2-----2--7--7------------------------------|
C--2-----------7---------------------------------|
A------------------------------------------------|
A------------------------------------------------|

VERSE WITH BASSLINE: ("Come and call for that sweet sweetness")

E------0---0-0-----0-0--0----0---0-0-------------0---0-0----0-0--0--0--|
B------0-0-0-0h5p0-0-0--0----0-0-0-0h5p0---------0-0-0-0h5p-0-0--0--0--|
E--5-0---0---------0-0--0------0---------0-0-------0--------0-0--0--0--|
C--5-0-------------x-x--x----------------0-0----------------x-x--x--0--|
A------------------3-3--5--0-------------0-0-2-3------------3-3--5--0--|
A------------------3-3--5--0-------------0-0-2-3------------3-3--5--0--|

CHORUS:

E-------5--------8-8-7-7----3-3-2-2---2-2-2-2----5-5-5-5----2-2-2-2----|
B-----3---3------6---6------1---1-----1---1------3---3------1---1------|
E---5-5-----5--7-7---7----2-2---2---2-2---2----5-5---5----2-2---2------|
C---5----------7-----7----2---------2----------5----------2------------|
A----------------------------------------------------------------------|
A----------------------------------------------------------------------|

CHORUS (continued):

E----7-7-7---------|
B----6---6---------|
E--7-7---7---------|
C--7---------------|
A------------------|
A------------------|

Then, go through the next verse playing what you played in "VERSE WITH
BASSLINE" and play around with it your own way, get another chorus in
there, and you're done. Hooray.
Tap to rate this tab
 
# A B C D E F G H I J K L M N O P Q R S T U V W X Y Z