Song name
# A B C D E F G H I J K L M N O P Q R S T U V W X Y Z

Ani Difranco - Names And Dates And Times tab

This one's a little tricky to get the rhythm of, and my tab isn't
a perfect transcription, so like always, don't use this as note for
note, just learn the main chord shapes from the tab here and 
develop your own best interpretation of how Ani rocks it

NOTE: Fret numbers here are written as if open (Acutual)

(h) = Play notes in harmonics

VERSES

E----5--------5-----5------------------|
B----5--------5-----5--17(h)--12(h)----|
G----5--------5-----5--17(h)--12(h)----|
D----5--------5-----5--17(h)--12(h)----|
G--9-----5-5-----10----17(h)--12(h)----|
C--9-----5-5-----12--------------------|

Repeat this throughout all verses.


CHORUS

E-------------------------------------------------------------|
B-----5----------5----5----------5---5-------5---5-------5----|
G-----5----------5----5----------5---5-------5---5-------5----|
D-----5----------5----5----------5---5-------5---5-------5----|
G--12---12-12-12---10---10-10-10---9---9-9-9---7---7-7-7------|
C--12---12-12-12---10---10-10-10---9---9-9-9---7---7-7-7------|
Tap to rate this tab
 
# A B C D E F G H I J K L M N O P Q R S T U V W X Y Z