Song name
# A B C D E F G H I J K L M N O P Q R S T U V W X Y Z

Ani Difranco - Dilate tab

Dilate
from Dilate
by Ani Difranco
Tuning: AADGAD


		A A^ D G A D (low E string is tuned down to an octave below the A string)
 
A part:
 
play measure#1 twice, then measure#2 once, then measure#1 again once
 
measure#1            measure#2
|------2---s4--4--4-4-|-----4--4--4-4----|
|------0-------0--0-0-|-----0--0--0-0----|
|------0-------0--0-0-|-0---0--0--0-0----|
|------2---s4--4--4-4-|-0----------------|
|-0-0-----------------|-5----------------|
|-0-0-----------------|-5----------------|
 
"...used to be lifelike"
 
B part:
 
|------------------|----0------------|
|-----4------4-----|-------4---------|
|-0----------------|-----------------|
|------------------|-0---------------|
|-2-------4--------|-5---------------|
|-2-------4--------|-5---------------|
 
"Everyone has a skeleton..."

Fill in the rhythms yourself, they have a triplet feel in general.
Tap to rate this tab
# A B C D E F G H I J K L M N O P Q R S T U V W X Y Z