Song name
# A B C D E F G H I J K L M N O P Q R S T U V W X Y Z

Ani Difranco - You Had Time tab

Help us improve GuitareTab! Take a short survey!
Ani DiFranco --- You Had Time
Capo on 4th fret, in standard tuning


intro/verse  riff

E |--2--0--3--3----3------0------2--3----2---|
B |--3-----3-------3------2-3----3-------3---|
G |------------0-----------------------------|
D |--0---------------------------0----0--0---|
A |--------2-------2------0------------------|
E |------------------------------------------|

E |--2--0--3-3----3--0--------0-------0----|
B |--3-----3------3--2---------------------|
G |------------0----------------2--------2-|
D |--0-------------------------------------|
A |--------2------2--0------0--------0-----|
E |----------------------------------------|




2nd riff


E |------------------------------------------|
B |--2---------3-3---3--5--------7--7----7---|
G |--2---2s4---4---4-4--6--6/7---7----7--7---|
D |------------------------------------------|
A |------------------------------------------|
E |--2---------3-----3--5--------7-------7---|

E |------------------------------------------|
G |--2---------3-3---3---5-----5--------5----|
B |--2---2s4---4---4-4---6--------6--------6-|
D |------------------------------------------|
A |------------------------------------------|
E |--2---------3-----3---5---5----5----5---5-|

(use your thumb over to play the 6th string note)



I built off another tab, Its not exact-- but it seems more accurate and easier 

to play

love the song =)
-Bianca [i-rockyourworld@hotmail.com]

Related for You Had Time tab