Animal Collective - Guys Eyes tab

Animal Collective
Guys Eyes

Inspiration for the tab actually taken from "Song for Ariel" in Panda Bear's live show

Main chords sampled/strummed
e|--------------------------------------------------------------------------|
B|--------------------------------------------------------------------------|
G|---5~--------7~-----------------------------------------------------------|
D|---5~--------5~-----------------------------------------------------------|
A|---7~--------5~-----------------------------------------------------------|
E|---8~--------7~-----------------------------------------------------------|

Synth lines arranged for guitar
*8th notes
e|--------------------------------------------------------------------------|
B|--------------------------------------------------------------------------|
G|-------7--5-----7--5-----5------9--7-----9--7-----7-----------------------|
D|----7--------7--------7------9--------9--------9--------------------------|
A|--------------------------------------------------------------------------|
E|--------------------------------------------------------------------------|
      1  +  2  +  3  +  4  +   5  +  6  +  7  +  8  +

"So I used my mind"
e|--------------------------------------------------------------------------|
B|--------------------------------------------------------------------------|
G|----------12--------12-----------12---------------------------------------|
D|----12------12-15-------12-12--------12---15-14---------------------------|
A|--------------------------------------------------------------------------|
E|--------------------------------------------------------------------------|
Tap to rate this tab
 
# A B C D E F G H I J K L M N O P Q R S T U V W X Y Z