Song name
# A B C D E F G H I J K L M N O P Q R S T U V W X Y Z

Animal Collective - Prospect Hummer chords

Highlighted       Show chord diagrams
E|---------------------------------|
B|-----4-4-----3-3-----1-1-----3-3-|
G|-----5-5-----3-3-----1-1-----3-3-|
D|---------------------------------|
A|-3-3-----------------------------|
e|---------3-3-----1-1-----3-3-----|

its quiet on my floor
except for a gospel ladies
just the smell of some wicked candles
makes me thinks into the baroness seiling
they wear light rimmed hats and joyful smiles
who loved to run up the street branch
and in the middle of it is a puddle of water
wind of faithful voices

G4 Gm
whoa whoa whoa whoa whoa whoa whoa
G4 Gm
whoa whoa whoa whoa whoa whoa whoa
G4 Gm  Fm
whoa whoa whoa whoa whoa whoa whoa whoa whoa
G4 Gm
whoa whoa whoa whoa whoa whoa whoa
G4 Gm Fm
whoa whoa whoa whoa whoa whoa whoa whoa whoa
G4
whoa whoa whoa

E|---------------------------------|
B|-----4-4-----3-3-----1-1-----3-3-|
G|-----5-5-----3-3-----1-1-----3-3-|
D|---------------------------------|
A|-3-3-----------------------------|
e|---------3-3-----1-1-----3-3-----|

your cat is a friendly brother
whod offer his heart with allegience
and if he could talk we'd be best friends
the only friend he has is his food bowl
and he bites away at your book hand
and for the commendable attention you give him
and you cuddle for a half an hour
and he dreams about his food bowl

(Whoa)

i'll leave you in my heart
six or seven later
im still very very hungry
i'm still writing songs I can play.
but my heaven is all around me
and theres zulu in my body
have i eaten all the very good dates now
is our night worth contemplating? 
Tap to rate this tab
# A B C D E F G H I J K L M N O P Q R S T U V W X Y Z