Song name
# A B C D E F G H I J K L M N O P Q R S T U V W X Y Z

Animal Collective - Chocolate Girl tab

Another great song by Animal Collective, also not my own tab, just sharing it on another 
website hope you enjoy!
here's Chocolate Girl by Animal Collective


from collected animals forum

Intro

Piano:  A
synth part  notes(a-e-c#----e-c#-e--g#-g#-g#--)

e----12--9-----12--9--12---------------------|
B-10-------------------------9--9--9---------|
G--------------------------------------------|
D--------------------------------------------|
A--------------------------------------------|
E--------------------------------------------|

:38 seconds     :45 seconds
"holding"
Piano:  A        Piano: Gm              A
Synth part       synth part
note (e--)       notes(g-f--g-f-e--c#-e-)

e-12------------------15--13---15-13---12---------12--------------|
B-----------------------------------------------14----------------|
G-----------------------------------------------------------------|
D-----------------------------------------------------------------|
A-----------------------------------------------------------------|
E-----------------------------------------------------------------|

1:12
"I'll Take you for walks"
Piano: A
p--------------------------|iano  notes (Ab-Ab-Ab-Gb-Gb-Gb-)
e---16-16-16-14-14-14------|
B--------------------------|
G--------------------------|
D--------------------------|
A--------------------------|
E--------------------------|

1:21
"she had a pretty dad"
guitar: A

e---------5----------------------------------------------------------|
B-----------------5--------------------------------------------------|
G--------------------------------------------------------------------|
D--7------------------------------7-----------------7----------------|
A-----------------------------------------7-----------------7--------|
E------5-------5-------5-5-5---------5--------5--------5--------5----|


e---------5----------------------------------------------------------|
B-----------------5--------------------------------------------------|
G--------------------------------------------------------------------|
D--7------------------------------7-----------------7----------------|
A-----------------------------------------7-----------------6--------|
E------5-------5-------5-5-5---------5--------5--------5-------------|

1:27
"growing out of playschool"
Guitar:  G   (play twice)

e----------3----------------------------------------------------------------|
B---------------------------------------------------------------------------|
G---------------------------------------------------------------------------|
D--5-----------------5---------------5-------------------5------------------|
A----------------------------------------------5------------------5---------|
E------3--------3----------3-3-3----------3---------3--------3---------3----|

1:34
"wanted to"
Guitar:  D

e--2------------------------2-------------------2-------------------------|
B-------------------------------------------------------------------------|
G-------------2------------------------2-------------------2--------------|
D-----0-0-0-------0-0-0---------0-----------0--------0----------0---------|
A-------------------------------------------------------------------------|
E-------------------------------------------------------------------------|


e--2------------------------2-------------------2-----------2-------------|
B-------------------------------------------------------------------------|
G-------------2------------------------2----------------------------------|
D-----0-0-0-------0-0-0---------0-----------0--------0--------------------|
A-------------------------------------------------------------------------|
E-------------------------------------------------------------------------|

1:40
Synth and guitar picking (as shown above)

  A                                  G                D
"chocolate girl".....    "barely"....     "Wanted to"    (and repeat)

Play everything again from start

5:00
Guitar:   A
"chocolate Girl"

5:12
Guitar, bring same chords in on synth

 C#m        Bm                             E          F#m
 "put your lanterns out .....       bitter the rain who"

  E        A                   E          F#m
 "I can't see you..   I'll open up my brain again"
Tap to rate this tab
# A B C D E F G H I J K L M N O P Q R S T U V W X Y Z