Song name
# A B C D E F G H I J K L M N O P Q R S T U V W X Y Z

Animal Collective - Grass chords

Highlighted       Show chord diagrams
This is not my tab(I do not take credit for it) but I thought I would like to share it 
here for everyone,

Animal Collective - Grass


A# x15

A#                         Dm
I was walking on feet just like my father's          and my
A#                                     Dm
knees were trying to reach you at your mother's      and my
A#                                         Dm
nose was screaming that you smelled like a lover     and my
A#                                   Dm
hands were happy to treat you like a brother         then

A
WE DO THE DANCE UP ON THE PLAIN
(Daddsomething Dm)*see below
Then I shake your shoulders
F
You push me down into the grain who rubs our noses in the night
we do we do

Gm
POW POW NOW NOW (oooooo oooooOOO)
Dm
POW POW NOW NOW (oooooo oooooOOO)
F
POW POW NOW NOW POW POW NOW NOW

A#                        Dm
I remember the plants and simple pleasures and
A#                         Dm
I sew patches on pants and I get pleasure and
A#                                 Dm
I don't make particular plans 'cuz they don't matter if you
A#                             Dm
keep on fooling in bed with my sleeping patterns   and

A
WE DO THE DANCE UP ON THE PLAIN
(Daddsomething Dm)*see below
Then I shake your shoulders
F
You push me down into the grain who rubs our noses in the night
we do we do

Gm
POW POW NOW NOW (oooooo oooooOOO)
Dm
POW POW NOW NOW (oooooo oooooOOO)
F
POW POW NOW NOW POW POW NOW NOW

e|--------------------------------------------------------|
B|10-10---------------------------------------------------|
G|-------10-10--12-12---------12-12---------10-10---------|
D|---------------------12-12---------12-12---------12-12--|
A|--------------------------------------------------------|
E|--------------------------------------------------------|
   What's with all the changes...
e|--------------------------------------------------------|
B|11-11--10-10--------------------------------------------|
G|--------------12-12--10--10--12-12---------10-10--------|
D|-----------------------12-----------12-12---------12-12-|
A|--------------------------------------------------------|
E|--------------------------------------------------------|
  Did they empty out their pockets...

e|--------------------------------------------------------|
B|12-12--10-----10-10--12---------------------------------|
G|----------12------------12------------------------------|
D|--------------------------------------------------------|
A|--------------------------------------------------------|
E|--------------------------------------------------------|
  I was very nervous how I felt in there...


A#
Would you like to see me often
Though you don't need to see me often
Because I'd like to see you often
Though I don't need to see you often

A
WE DO THE DANCE UP ON THE PLAIN
(Daddsomething Dm)*see below
Then I shake your shoulders
F
You push me down into the grain who rubs our noses in the night
we do we do

Gm
POW POW NOW NOW (oooooo oooooOOO)
Dm
POW POW NOW NOW (oooooo oooooOOO)
F
POW POW NOW NOW POW POW NOW NOW

* Daddsomething Dm
I don't know what this is really called (Dadd9?), but this is what I play

e|-5--5--5--5--5--5--5---|
B|-8--6--8--6--8--6--8---|
G|-7--7--7--7--7--7--7---|
D|-----------------------|
A|-----------------------|
E|-----------------------|

I play all the chords barred, but you could do them open too.
Tap to rate this tab
 
# A B C D E F G H I J K L M N O P Q R S T U V W X Y Z