Song name
# A B C D E F G H I J K L M N O P Q R S T U V W X Y Z

Animal Collective - Fireworks tab

The guitar in this song is pretty simple, I'm not going to get complex and tab out 
EXACTLY how Avey Tare or Deakin play it, but this is a basis in which you can mess around 
with. I go by more of how the strumming is used when they play live, but enjoy!

Tuning F (Whole-Step Up)

Lablakely Dress:
e|-------------------------|
B|-------------------------|
G|-------------------------|
D|-------------------------|
A|777777777777-555555555555|
E|888888888888-777777777777|

e|-------------------------|
B|-------------------------|
G|-------------------------|
D|-------------------------|
A|777777-555555------------|
E|888888-777777------------|


Fireworks:
Verse/Chorus: Whole Step up
e|----------------------------|
B|----------------------------|
G|----------------------------|
D|----------------------------|
A|777777-555555-333333-222222-|
E|888888-777777-555555-333333-|


|-----------------------------|
|In Standard:                 |
|Verse/Chorus: Standard       |
|e|---------------------------|
|B|---------------------------|
|G|---------------------------|
|D|---------------------------|
|A|888888-666666-444444-333333|
|E|999999-888888-666666-444444|
|-----------------------------|


Bridge: (First Regiment) Whole Step Up
e|-------------------|
B|-------------------|
G|-------------------|
D|--------0----------|
A|2-----2---2-2-2--2-|
E|3-or-3-3-3-3-3-33--| x2

Second Part:
e|---------------------------------------------|
B|---------------------------------------------|
G|---------------------------------------------|
D|4-------4--------------0-------0-------------|
A|5-----5---5-5-5--5-----2-----2---2-2-5/2p0---|
E|5-or-5-5-5-5-5-55------2-or-2-2-2-2-2--------|(0)
Tap to rate this tab
# A B C D E F G H I J K L M N O P Q R S T U V W X Y Z