Song name
# A B C D E F G H I J K L M N O P Q R S T U V W X Y Z

Animal Jazz - Shag Vdoh tab

Animal Jazz - Shag Vdoh
Animal ДжаZ - Шаг Вдох

part 1
e|--------------------------------------------------------|
h|--------------------------------------------------------|
g|--------------------------------------------------------|
D|--------------------------------------------------------|
A|--------------------------------------------------------|
E|--3-4-5-x-x-x-5-x-x-3-5---------------------------------|

part 2
e|--------------------------------------------------------|
h|--------------------------------------------------------|
g|--------------------------------------------------------|
D|--5-6-7-x-x-x-7-x-x-5-7---------------------------------|
A|--------------------------------------------------------|
E|--3-4-5-x-x-x-5-x-x-3-5---------------------------------|

part 3
e|--------------------------------------------------------|
h|-----0-1---0-------------------0-1---0-1-----1----------|
g|---------2---0-2---0------------------------------------|
D|---2-------------2---2-2-0-2-2-----2--------------------|
A|-0------------------------------------------------------|
E|--------------------------------------------------------|

part 4
e|--------------------------------------------------------|
h|---------------------0-1----0-1----1--------------------|
g|-----2-------2------------------------------------------|
D|---3---3---3---3---2------2-----------------------------|
A|--------------------------------------------------------|
E|-1-------1----------------------------------------------|

part 5
e|--------------------------------------------------------|
h|--------------------------------------------------------|
g|-----2-------2-------1-------1--------------------------|
D|---3---3---3---3---2---2---2---2------------------------|
A|--------------------------------------------------------|
E|-1-------1-------0-------0------------------------------|

part 6 (chorus)
F - C - F - C - F - C - E - F
listen to the song to get the strumming right

part 7 (jazz outro)
missing :(
Tap to rate this tab
# A B C D E F G H I J K L M N O P Q R S T U V W X Y Z