Song name
# A B C D E F G H I J K L M N O P Q R S T U V W X Y Z

Animal Liberation Orchestra - Girl I Wanna Lay You Down tab

Intro, break, and end
e|-8---7--5--3--8---7--5--------------------------------------------|
B|-10--8--6--3--10--8--6--------------------------------------------|
G|-10--9--5--5--10--9--5--------------------------------------------|
D|-10--9--7--5--10--9--7--------------------------------------------|
A|-8---7--5--3--8---7--5--------------------------------------------|
E|-x---x--x--x--x---x--x--------------------------------------------|

Verse and Chorus
e|-8---5------------------------------------------------------------|
B|-8---6------------------------------------------------------------|
G|-9---5------------------------------------------------------------|
D|-10--7------------------------------------------------------------|
A|-10--5------------------------------------------------------------|
E|-8---x------------------------------------------------------------|

End on
e|-8----------------------------------------------------------------|
B|-8----------------------------------------------------------------|
G|-9----------------------------------------------------------------|
D|-10---------------------------------------------------------------|
A|-10---------------------------------------------------------------|
E|-8----------------------------------------------------------------|

www.alomusic.com
www.brushfirerecords.com
Tap to rate this tab
# A B C D E F G H I J K L M N O P Q R S T U V W X Y Z