Song name
# A B C D E F G H I J K L M N O P Q R S T U V W X Y Z

Animal - Cop Killer tab

RiFFs:
rIff 1
                            3x
e:---------------------------|------------------------------|
B:---------------------------|------------------------------|
G:---------------------------|------------------------------| X3
D:-4-4-4-4-4-4-4-4--9---7---9|-4-4-4-4-4-4-4-4--/10---9---7-|
A:-4-4-4-4-4-4-4-4--9---7---9|-4-4-4-4-4-4-4-4--/10---9---7-|
E:-4-4-4-4-4-4-4-4--9---7---9|-4-4-4-4-4-4-4-4--/10---9---7-|
RifF 2   
                            3X
e:----------------------------|------------------------------|
B:----------------------------|------------------------------|
G:----------------------------|------------------------------|
D:----------------------------|------------------------------|X2
A:-4-4-4-4-4-4-4-4--9---7---9-|-4-4-4-4-4-4-4-4--/10---9---7-|
E:-4-4-4-4-4-4-4-4--9---7---9-|-4-4-4-4-4-4-4-4--/10---9---7-|
  PM........................................................
cORO:
                              3X
e:----------------------------------------------|
B:----------------------------------------------|
G:----------------------------------------------|
D:-9-9-9-9-9-9-9-9--7---4---5/7-7-7-7-7-7-7-7-7-|
A:-9-9-9-9-9-9-9-9--7---4---5/7-7-7-7-7-7-7-7-7-|
E:-9-9-9-9-9-9-9-9--7---4---5/7-7-7-7-7-7-7-7-7-|

e:---------------------------------------------|
B:---------------------------------------------|
G:---------------------------------------------|
D:-9-9-9-9-9-9-9-9--7---4---5/7--6--5--4--3--2-|
A:-9-9-9-9-9-9-9-9--7---4---5/7--6--5--4--3--2-|
E:-9-9-9-9-9-9-9-9--7---4---5/7--6--5--4--3--2-|

http://www.animal.com.ar/
Tap to rate this tab
# A B C D E F G H I J K L M N O P Q R S T U V W X Y Z