Song name
# A B C D E F G H I J K L M N O P Q R S T U V W X Y Z

Animals As Leaders - Song Of Solomon chords

-------------------------------------------------------------------------------
                 Animals As Leaders - Song Of Solomon Intro
-------------------------------------------------------------------------------
Tabbed by: Andrew Tamalunas
Email: lmaonade123@gmail.com

Tuning: EADGBe

He normally uses a 7 string but he doesn't use the (low) B string in the intro. It took
like 35 minutes or so to be happy with what I got and go back through and everything
I know), so please take the time to rate. I'm working on the solo also, so if this gets 
I'll put that up too.


e|-0--|-0--0-0--|---|
B|-3--|-7--7-7--|-5-|
G|-4--|-4--4-4--|-2-|
D|-2--|-5--5-5--|-5-|
A|-3--|-7--7-7--|---|
E|----|---------|---|

Fill he does

e|---------------------------------------------------------------------------|
B|-3p0-----------------------------------------------------------------------|
G|-----0---4p0---------------------------------------------------------------|
D|-------2-----2-------------------------------------------------------------|
A|---------------3-----------------------------------------------------------|
E|---------------------------------------------------------------------------|
Tap to rate this tab
# A B C D E F G H I J K L M N O P Q R S T U V W X Y Z