Song name
# A B C D E F G H I J K L M N O P Q R S T U V W X Y Z

Animals As Leaders - Cafo tab

Animals As Leaders - "CAFO
Tosin Abasi did a quick vid just on the intro to the song
so i figured to write it down and put it up here since no1 else has
done so, i'll try and figure out the reverse part later when i free time
but other than that have some fun playing it! ^.^

7string Guitar
Tune Down E string down to a half step

do all hammer-on's with your left hand and do the taps with your right hand
                                                           (middle and ring)


Sorry if it short,i like to keep thing neat and aligned espically if i print
things out


Intro
B|-5h--7h--T12--T14------------------------------------------|
E|------------------9h--11h--12h--T14--T16-------------------|
A|------------------------------------------7h--9h--T14--T16-|
D|-----------------------------------------------------------|
G|-----------------------------------------------------------|
B|-----------------------------------------------------------|
e|-----------------------------------------------------------|

Continued
B|----------------------------------------------------------|
E|----------------------------------------------------------|
A|----------------------------------------------------------|
D|--9h--11h--12h--T14--T16----------------------------------|
G|--------------------------9h--11h--12h--T16--T18----------|
B|----------------------------------------------------------|
e|----------------------------------------------------------|

Continued
B|----------------------------------------------------------|
E|----------------------------------------------------------|
A|----------------------------------------------------------|
D|----------------------------------------------------------|
G|----------------------------------------------------------|
B|--12h--14h--15h--T17--T19---------------------------------|
e|---------------------------12h--14h--15h--T19--T21--------|

2nd tab
Tap to rate this tab
# A B C D E F G H I J K L M N O P Q R S T U V W X Y Z