Song name
# A B C D E F G H I J K L M N O P Q R S T U V W X Y Z

Animals As Leaders - Cafo tab

KEY
> , < = hammer on/ pull off

E-14-17----------17-14-17-------------------------17-14-17---------17--|
A------16------16--------16---------------------16--------16------16---|
D--------14--14------------14>16<14>18<14>16<14-------------14--14-----|
G----------18-------------------------------------------------18-------|
B----------------------------------------------------------------------|
E----------------------------------------------------------------------|

E-14-17-------------------------17-14-17---------17-14-14-14-14---|
A------16---------------------16--------16------16----------------|
D--------14>16<14>18<14>16<14-------------14--14------------------|
G-------------------------------------------18--------------------|
B-----------------------------------------------------------------|
E-----------------------------------------------------------------|

E-14-17-----------------------17-14-17---|
A------16--------------------16----------|
D--------14>16<14>18<14>16<14------------|
G----------------------------------------|
B----------------------------------------|
E----------------------------------------|

repeat sequence from last variation.
Tap to rate this tab
 
# A B C D E F G H I J K L M N O P Q R S T U V W X Y Z