Song name
# A B C D E F G H I J K L M N O P Q R S T U V W X Y Z

Animals As Leaders - Point To Point tab

Couldn't find an 8-string version for Point to Point. Looks terrible, clean it up if you 
want. The pitches are 100% accurate.
Play the first ending (1st) then the second ending (2nd). The rest shouldn't be too hard 
to figure out.

Email is Nfrno@hotmail.com for questions.


e|-----------------------------16,-------9----------4-4-4,-------------------|
b|---------------------------0-----------0----------0-0-0--------------------|
g|------------------------15-----------8------------3-3-3--------------------|
d|------------------14/16------------9--------------4-4-4---9/8--------------|
a|-------------13/14---------------7--------(1st)---X-X-X-------9/11/14------|
e|-------12-16----------------------------------4---4-4-4--------------------|
b|----12---------------------------------------4-----------------------------|
e|-12-----------------------------------------4------------------------------|

e|-------9---------9--9--9---------------------------------------------------|
b|-------0---------0--0--0--------------------------9-------12---------------|
g|-----8-----------8--8--8---9\8------11---------13---13-------11------------|
d|---9-------------9--9--9-------9/11---------11---------11-------11----16---|
a|-7---------------------x-----------------11-------------------------14-----|
e|----(2nd)---9---------9---------------0------------------------------------|
b|-----------9---------------------------------------------------------------|
e|----------9----------------------------------------------------------------|

e|------------0---0-------0---0----------------------------------------------|
b|----0-------0---0-------0---0---------------9--------12--------------------|
g|-15---------15--15------15--15-----------13---13-------11----9----------x2-|
d|------------16--16------16--16--------11---------11-------11---13----------|
a|-----------------------------------11-----------------------------11p9h11--|
e|--------16------------14-----------0---------------------------------------|
b|--------16------------14---------------------------------------------------|
e|--------16------------14---------------------------------------------------|
Tap to rate this tab
# A B C D E F G H I J K L M N O P Q R S T U V W X Y Z