Song name
# A B C D E F G H I J K L M N O P Q R S T U V W X Y Z

Animals As Leaders - On Impulse tab

Animals as Leaders 
On Impulse
From the album 'Animals as Leaders'
6 string version 
Charted/Tabbed by Ethan Crisp
Youtube: www.youtube.com/channel/UCZ1D3ZJr_dW9B-7D5lerAxg

This is the main riff of 'On Impulse' and I may to the full song soon

This is my first tab and it is I think extremely accurate

CBA trying to wright the rhythm so figure it out yourself
It took me one guitar teacher , a guitar pro tab and the software transcribe to 
get this tab so enjoy :D

Standard Tuning:

Main Riff 1:

e|------------------------7--9----------------------------------7--5------|
B|------------7--------5--------9-----10---------9--------5--7------------|
G|---------6--------6--------------9------9~~~7---------------------------|
D|------6--------4----------------------------------4--6------------------|
A|------------------------------------------------------------------------|
E|---5--------------------------------------------------------------------|

Main Riff 2:

e|-------------------------7--9-------------------------------------------|
B|-------------7--------5--------9-----10---------9--------------6--------|
G|----------6--------6--------------9------9~~~7-----------6--------7-----|
D|-------6--------4-------------------------------------------6--------9--|
A|---------------------------------------------------9--8-----------------|
E|---5--------------------------------------------------------------------|

e|---5-------------------7---------------------------------------|
B|------6----------6---------------------------------------------|
G|---------7----------7------------------------------------------|
D|---------------------------------------------------------------|
A|------------9--6-----------------------------------------------|
E|---------------------------------------------------------------|

It is awkward I know but it helps your hand positions , rolling and sweep picking (if you want to)

Extra:
When Tosin plays it , he picks the 5 on the E string and lets it ring
 while using his other fingers to pick the remaining notes and then 
does the same on the 6 (3rd 6/ 2nd) on the G string
Tap to rate this tab
# A B C D E F G H I J K L M N O P Q R S T U V W X Y Z