Song name
# A B C D E F G H I J K L M N O P Q R S T U V W X Y Z

Animals - Its My Life tab

Help us improve GuitareTab! Take a short survey!
Tabbed by Bret

<---------INTRO PART---------><---This part repeats during the song------->
e|-------------------------------------------------------------------------|
B|-------------------------------------------------------------------------|
G|-------------------------------------------------------------------------|
D|---4-6---4-6---4-6-4-------------4-6/7-7-7\6-4---------4-6/7-7-7\6-4-----|
A|---------------------6-4-6-----6---------------6---6-6---------------6---|
E|-------------------------------------------------------------------------|

                               <---and this part is also in the verse----->
e|-------------------------------------------------------------------------|
B|-------------------------------------------------------------------------|
G|-------------------------------------------------------------------------|
D|---------------------------------4-6-6-6-6-6-4---------4-6-6-6-6-6-4-----|
A|-------------------------------6---------------6---6-6---------------6---|
E|-------------------------------------------------------------------------|

you can also do the above part something like this and it sounds good too
D|-------------------------------------------------------------------------|
A|--6--6-6--6-4--2--2-2--2-4--6--6-6--6-4--2-2/-(chorus part here, below)--|
E|-------------------------------------------------------------------------|


Chorus             
e|-------------------------------------------------------------------------|
B|-----------------------------------------------7--9----------------------|
G|---6-----8----------5-6-5----3-4------6---8----6--8----------------------|
D|---6-----8-------6--------4-----------6---8----4--6----------------------|
A|---4-----6----------------------------4---6------------------------------|
E|-------------------------------------------------------------------------|

end of chorus (someday I'll treat you real fine....)
e|-------------------------------------------------------------------------|
B|-------------------------------------------------------------------------|
G|---6--8----6-8------6-6-6-6-6-6-8----------------------------------------|
D|---6--8----6-8------6-6-6-6-6-6-8----------------------------------------|
A|---4--6----4-6------4-4-4-4-4-4-6----------------------------------------|
E|-------------------------------------------------------------------------|

after first chorus repeat intro and continue with verse
Related for Its My Life tab