Song name
# A B C D E F G H I J K L M N O P Q R S T U V W X Y Z

Animals - Roadrunner tab

                        Roadrunner
                 (whole song repeated)
E -----------------------------------------------------------------------|
B -----------------------------------------------------------------------|
G -----------------------------------------------------------------------|
D ------------2--------------2-------------2-------------2-------------2-|
A ------2-2-4----------2-2-4----------2-2-4---------2-2-4---------2-2-4--|
E 0--2-3---------0--2-3---------0--2-3--------0--2-3--------0--2-3-------|

E -----------------------------------------------------------------------|
B -----------------------------------------------------------------------|
G -----------2--------------2---------------------------------8-7-6------|
D ------2-2-4---------2-2-4----------------2--------------2---9-8-7------|
A 0--2-3--------0--2-3---------------2-2-4----------2-2-4-----9-8-7------|
E -----------------------------0--2-3---------0--2-3----------7-6-5------|

E -----------------------------------|
B -----------------------------------|
G --------------------------------8--|
D ------------2--------------2----9--|  X8
A ------2-2-4---------2-2-4-------9--|              (back to beginning)
E 0--2-3--------0--2-3------------7--|
Tap to rate this tab
# A B C D E F G H I J K L M N O P Q R S T U V W X Y Z