Song name
# A B C D E F G H I J K L M N O P Q R S T U V W X Y Z

Animals - Its My Life tab

The Animals - It's My Life

<---------INTRO PART---------><---Intro PART II------->
e|-------------------------------------------------------------------------|
B|-------------------------------------------------------------------------|
G|-------------------------------------------------------------------------|
D|---4-6---4-6---4-6-4-------------4-6/7-7-7\6-4---------4-6/7-7-7\6-4-----|
A|---------------------6-4-6-----6---------------6---6-6---------------6---|
E|-------------------------------------------------------------------------|

INTRO
INTRO PART II, 2x
Play intro II over the first verse

It's a hard world to get a break in 
All the good things have been taken 
But girl there are ways 
To make certain things pay 
Though I'm dressed in these rags 
I'll wear sable some day 
Hear what I say 

                                          No more time spent…
e|--------------------------------------------------------------|
B|--------------------------------------------------------------|
G|----------5-6-5------3-4-3------5-6-5------3-4-3--------------|
D|-------6----------4-----------6---------4---------------------|
A|--------------------------------------------------------------|
E|--------------------------------------------------------------|

                                          I'm breakin' loose…
e|--------------------------------------------------------------|
B|--------------------------------------------------------------|
G|----------5-6-5------3-4-3------3-4-3------3-4-3--------------|
D|-------6----------4-----------4---------4---------------------|
A|--------------------------------------------------------------|
E|--------------------------------------------------------------|

e|--------------------------------------------------------------|
B|--------------------------------------------------------------|
G|----------5-6-5------3-4-3------3-4-3-------------------------|
D|-------6----------4-----------4-------------------------------|
A|--------------------------------------------------------------|
E|--------------------------------------------------------------|

e|--------------------------------------------------------------|
B|--------------------------------------------------------------|
G|----------5-6-5------5-6-5------5-6-5-------------------------|
D|-------6----------6-----------6-------------------------------|
A|--------------------------------------------------------------|
E|--------------------------------------------------------------|


I'm going to ride this surf in 
No more time spent sweatin' rent 
Hear my command? 
I'm breakin' loose, it ain't no use 
Holdin' me down, stickin' around 
But baby (baby), remember (remember), 

C#      D#      F#      G#
It's my life and I'll do what I want 
C#      D#      F#      G#
It's my mind and I'll think what I want 
F#      G#        F#      G#
Show me I'm wrong, hurt me sometime 
F#  F#  F#  F#  F#  F#    G#
But someday I'll treat you real fine. 

Intro
INTRO PART II, 2x
Play intro II over the next verse

There'll be women and their fortunes 
Who'll just want to mother orphans 
Are you going to cry 
When I'm squeezin' you right 
Taking all I can get, no regrets 
When I open their lives 


And live on their money 
Believe me, honey, that money 
Can you believe? 
I ain't no saint, no complaints 
So girl before I [?] 
But baby (baby), remember (remember) 

C#      D#      F#      G#
It's my life and I'll do what I want 
C#      D#      F#      G#
It's my mind and I'll think what I want 
F#      G#        F#      G#
Show me I'm wrong, hurt me sometime 
F#  F#  F#  F#  F#  F#    G#
But someday I'll treat you real fine.

It's my life and I'll do what I want 
(Don't push me!) 
It's my mind and I'll think what I want 
(It's my life!) 
It's my life and I'll do what I want 
(I can do what I want!)


Have fun
-Eric
Tap to rate this tab
 
# A B C D E F G H I J K L M N O P Q R S T U V W X Y Z