Song name
# A B C D E F G H I J K L M N O P Q R S T U V W X Y Z

Animals - House Of The Rising Sun tab

e|-----------12--12--12--12--10----------------------17--17--17--17--15-|
B|-10-12-13----------------------13-10-10-8-10-12-10--------------------|
G|----------------------------------------------------------------------|
D|----------------------------------------------------------------------|
A|----------------------------------------------------------------------|
E|----------------------------------------------------------------------|


e|---12--10--12h15p12h15p12h15p12h15p12h15p12h15p12h15p12h15p12h15p-|
B|------------------------------------------------------------------|
G|------------------------------------------------------------------|
D|------------------------------------------------------------------|
A|------------------------------------------------------------------|
E|------------------------------------------------------------------|


e|---12--10--------12--12--12--12--12--10--8--5--5--3--5--5p3-------|
B|-----------13-10---------------------------------------------5----|
G|----------------------------------------------------------------2-|
D|------------------------------------------------------------------|
A|------------------------------------------------------------------|
E|------------------------------------------------------------------|


e|------------------------------------------------------------------|
B|---------5-----5--------------------------------------------------|
G|---5--7-----7-----7-----5-------2--0--2---------------------------|
D|------------------------------------------------------------------|
A|------------------------------------------------------------------|
E|------------------------------------------------------------------|
Tap to rate this tab
 
# A B C D E F G H I J K L M N O P Q R S T U V W X Y Z