Song name
# A B C D E F G H I J K L M N O P Q R S T U V W X Y Z

Animals - House Of The Rising Sun tab

That's my first tab, so I hope it's right :)


INTRO

                   C                                D
E|-----------------0----------------------------2---2-----------|
H|-------------2-------2---------------------3----------3-------|
G|----------0--------------0--------------2-----------------2---|
D|-------2----------------------------0-------------------------|
A|---3----------------------------------------------------------|
E|--------------------------------------------------------------|

                   F                                Am
E|-------------1---1--------------------------------0-----------|
H|----------1----------1------------------------1-------1-------|
G|-------2-----------------2-----------------2--------------2---|
D|---3------------------------------------2---------------------|
A|------------------------------------0-------------------------|
E|--------------------------------------------------------------|

                   E                                Am
E|--------------------------------------------------0-----------|
H|-----------------0----------------------------1-------1-------|
G|-------------1-------1---------------------2--------------2---|
D|----------2--------------2--------------2---------------------|
A|-------2----------------------------0-------------------------|
E|---0----------------------------------------------------------|

                   E
E|-------------------------------|
H|-----------------0-------------|
G|-------------1-------1---------|
D|----------2--------------2-----|
A|-------2-----------------------|
E|---0---------------------------|


INTRO-END
----------------------------------------------------------------------

***
                   Am                               C
E|-----------------0--------------------------------0-----------|
H|-------------1-------1------------------------1-------1-------|
G|----------2--------------2-----------------0--------------0---|
D|-------2--------------------------------2---------------------|
A|---0--------------------------------3-------------------------|
E|--------------------------------------------------------------|

                   D                                F
E|-------------2---2----------------------------1---1-----------|
H|----------3----------3---------------------1----------1-------|
G|-------2-----------------2--------------2-----------------2---|
D|---0--------------------------------3-------------------------|
A|--------------------------------------------------------------|
E|--------------------------------------------------------------|

                   Am                               C
E|-----------------0--------------------------------0-----------|
H|-------------1-------1------------------------1-------1-------|
G|----------2--------------2-----------------0--------------0---|
D|-------2--------------------------------2---------------------|
A|---0--------------------------------3-------------------------|
E|--------------------------------------------------------------|

                   E                                E
E|--------------------------------------------------------------|
H|-----------------0--------------------------------0-----------|
G|-------------1-------1------------------------1-------1-------|
D|----------2--------------2-----------------2--------------2---|
A|-------2--------------------------------2---------------------|
E|---0--------------------------------0-------------------------|

                   Am                               C
E|-----------------0--------------------------------0-----------|
H|-------------1-------1------------------------1-------1-------|
G|----------2--------------2-----------------0--------------0---|
D|-------2--------------------------------2---------------------|
A|---0--------------------------------3-------------------------|
E|--------------------------------------------------------------|

                   D                                F
E|-------------2---2----------------------------1---1-----------|
H|----------3----------3---------------------1----------1-------|
G|-------2-----------------2--------------2-----------------2---|
D|---0--------------------------------3-------------------------|
A|--------------------------------------------------------------|
E|--------------------------------------------------------------|

                   Am                               E
E|-----------------0--------------------------------------------|
H|-------------1-------1----------------------------0-----------|
G|----------2--------------2--------------------1-------1-------|
D|-------2-----------------------------------2--------------2---|
A|---0------------------------------------2---------------------|
E|------------------------------------0-------------------------|

                   Am                               C
E|-----------------0--------------------------------0-----------|
H|-------------1-------1------------------------1-------1-------|
G|----------2--------------2-----------------0--------------0---|
D|-------2--------------------------------2---------------------|
A|---0--------------------------------3-------------------------|
E|--------------------------------------------------------------|

                   D                                F
E|-------------2---2----------------------------1---1-----------|
H|----------3----------3---------------------1----------1-------|
G|-------2-----------------2--------------2-----------------2---|
D|---0--------------------------------3-------------------------|
A|--------------------------------------------------------------|
E|--------------------------------------------------------------|

                   Am                               E
E|-----------------0--------------------------------------------|
H|-------------1-------1----------------------------0-----------|
G|----------2--------------2--------------------1-------1-------|
D|-------2-----------------------------------2--------------2---|
A|---0------------------------------------2---------------------|
E|------------------------------------0-------------------------|

                   Am                               E
E|-----------------0--------------------------------------------|
H|-------------1-------1----------------------------0-----------|
G|----------2--------------2--------------------1-------1-------|
D|-------2-----------------------------------2--------------2---|
A|---0------------------------------------2---------------------|
E|------------------------------------0-------------------------|


*** Da Capo
Tap to rate this tab
# A B C D E F G H I J K L M N O P Q R S T U V W X Y Z