Song name
# A B C D E F G H I J K L M N O P Q R S T U V W X Y Z

Animals - Smokestack Lightning tab

Riff #1  

|-0-3---------------------|
|-0-3~-----3--------------|
|-------2/4--4--/2p0------|
|-------------------2-----|
|-------------------------|
|----------------------0--|

Riff #2

|----0-----------------------|
|----0-3~------3-------------|
|------4~--2/4--4--\2p0------|
|------------------------2p0-|
|----------------------------|
|-0--------------------------|

Tabbed by Dylan Hurry 2012
Tap to rate this tab
# A B C D E F G H I J K L M N O P Q R S T U V W X Y Z