Song name
# A B C D E F G H I J K L M N O P Q R S T U V W X Y Z

Animals - Hey Gyp tab

      YOU NEED rhythm The rhythm is like  down down Up down down   down UP down down

        E-------------------------------------------------|
        B-------------------------------------------------|
        G-------------------------------------------------|
        D-7-7-7-7-7-X-X-5-5-X-X--7-7-7-7-7-X-X-5-5-X-X----|
        A-7-7-7-7-7-X-X-5-5-X-X--7-7-7-7-7-X-X-5-5-X-X----|
        E-5-5-5-5-5-X-X-3-3-X-X--5-5-5-5-5-X-X-3-3-X-X----|

        E-------------------------------------------------|
        B-------------------------------------------------|
        G-------------------------------------------------|
        D-7-7-7-7-7-X-X-5-5-X-X--7-7-7-7-7-X-X-5-5-X-X----|
        A-7-7-7-7-7-X-X-5-5-X-X--7-7-7-7-7-X-X-5-5-X-X----|
        E-5-5-5-5-5-X-X-3-3-X-X--5-5-5-5-5-X-X-3-3-X-X----|

        REPEAT IT LIKE 50 TIMES
Tap to rate this tab
# A B C D E F G H I J K L M N O P Q R S T U V W X Y Z