Song name
# A B C D E F G H I J K L M N O P Q R S T U V W X Y Z

Anime Fire - On The Wings Of Hope tab

Ok, This is my first tab. No One else had posted any of Anime Fire's songs, so I'm 
stoked to be the 1st, especially when they become the biggest thing in the Aussie scene since 
Killed The Prom Queen!
It's not complete YET, but I'll post what I've got so far. I know, the intro is off, but 
get it eventually.
I'm not sure what the exact tuning is. Drop C works for me. Maybe Drop B?
Please rate five/four stars, no lower. Cheers =D

Tabber: Jimi (ThisIsWhereMyHe -it was meant 2 b ThisIsWhereMyHeartIs)
Song: On The Wings Of Hope
Artist: Anime Fire
Album: On The Wings Of Hope EP
Tuning: Drop C

    Intro: (One guitar anyway)
D|----------------------------------------------|
A|----------------------------------------------|
F|----------------------------------------------|
C|-2---0---5---7-4------------------------------|
G|-2---0---5---7-4------------------------------|
C|-2---0---5---7-4------------------------------|
   Something like that.....

Verse.

    "Everywhere"
D|----------------------------------------------|
A|----------------------------------------------|
F|----------------------------------------------|
C|-----6---5-----5---6-----5h6p5----------------|
G|-------------------------------6h8------------|
C|-0-0---0---0-0---0---0-0----------------------|
   . .   .   . .   .   . .

    "faces I see stare back in despair"
D|----------------------------------------------|
A|----------------------------------------------|
F|------------------------7-7-------------------|
C|-----6---5-----6-8-10-8-----10-10~------------|
G|----------------------------------------------|
C|-0-0---0---0-0--------------------------------|
   . .   .   . .
That run has been annoying me... I think this is right...

    "trading places with those faces"
D|----------------------------------------------|
A|----------------------------------------------|
F|----------------------------------------------|
C|-----6---5-----5---6-----5h6p5----------------|
G|-------------------------------6h8------------|
C|-0-0---0---0-0---0---0-0----------------------|
   . .   .   . .   .   . .

     "Won't go far but you must"
D|----------------------------------------------|
A|----------------------------------------------|
F|----------------------------------------------|
C|-----6---5-----5---------5--------------------|
G|-------------------6---------5~---------------|
C|-0-0---0---0-0---0---0-0---0------------------|
   . .   .   . .   .   . .  .

    "Hold on"
D|----------------------------------------------|
A|----------------------------------------------|
F|----------------------------------------------|
C|-----10---9-----9---10-----9h10p9-------------|
G|----------------------------------10h12-------|
C|-0-0----0---0-0---0----0-0--------------------|
   . .    .   . .   .    . .

"You don't know what you've got until it's gone"
D|----------------------------------------------|
A|----------------------------------------------|
F|-------------------------7-7------------------|
C|-----10---9-----6-8-10-8-----10-10------------|
G|----------------------------------------------|
C|-0-0----0---0-0-------------------------------|
   . .    .   . .

    "And without fear, to disappear"
D|----------------------------------------------|
A|----------------------------------------------|
F|----------------------------------------------|
C|-----10---9-----9---10-----9h10p9-------------|
G|----------------------------------10h12-------|
C|-0-0----0---0-0---0----0-0--------------------|
   . .    .   . .   .    . .

     "You pay the price, for your life"
D|----------------------------------------------|
A|----------------------------------------------|
F|----------------------------------------------|
C|-----10---9-----9----------9------------------|
G|--------------------10---------9~-------------|
C|-0-0----0---0-0---0----0-0---0----------------|
   . .    .   . .   .    . .   .

I haven't worked out the pre-chorus yet sorry.
("Hope as high as the mountains")

Chorus.

  "You must become the change you wish to see in the world"
D|--------------------|
A|--------------------|
F|--------------------|
C|--5h6p5-------------|
G|--------6-8--8-8-8--|
C|--------------------|
    Repeat 16 times

Interlude.

D|----------------------------------------------|
A|----------------------------------------------|
F|----------------------------------------------|
C|-----6---5-----5---6-----5h6p5----------------|
G|-------------------------------6h8------------|
C|-0-0---0---0-0---0---0-0----------------------|
   . .   .   . .   .   . .

D|----------------------------------------------|
A|----------------------------------------------|
F|------------------------7-9-10-(10)-----------|
C|-----6---5-----6-8-8-10-----------------------|
G|----------------------------------------------|
C|-0-0---0---0-0--------------------------------|
   . .   .   . .

D|----------------------------------------------|
A|----------------------------------------------|
F|----------------------------------------------|
C|-----6---5-----5---6-----5h6p5----------------|
G|-------------------------------6h8------------|
C|-0-0---0---0-0---0---0-0----------------------|
   . .   .   . .   .   . .

D|----------------------------------------------|
A|----------------------------------------------|
F|----------------------------------------------|
C|-----6---5-----5------------------------------|
G|-------------------6--------------------------|
C|-0-0---0---0-0---0---0-0--1*~-----------------|
   . .   .   . .   .   . .

Verse.
Pre-chorus.
Chorus.
Techno bit.

Breakdown.

It changes slightly but this is the gist.

"Desolate this is becoming and beneath the feet of us this earth will shake"
D|----------------------------------------------|
A|----------------------------------------------|
F|----------------------------------------------|
C|-0--0--0--0-----------------------------------|
G|-0--0--0--0-0000--0000--0000-000--------------|
C|-0--0--0--0-0000--0000--0000-000--------------|
   .  .  .  . ....  ....  .... ...

Hope this helped. Remember, it's my 1st tab!


Anime Fire's site:
http://www.myspace.com/wherethewolvesfeartotread
Tap to rate this tab
# A B C D E F G H I J K L M N O P Q R S T U V W X Y Z