Song name
# A B C D E F G H I J K L M N O P Q R S T U V W X Y Z

Anime Fire - Apophis Destroyer Of Worlds tab

this is probably about 99% right...

h - hammer on
p - pull off
" - Tremolo Pick
b - Bend Note
r - Release Bend
* - Palm Mute
~ - Let Note Ring
/ - Slide Up
\ - Slide Down




C#|-----------------------------------------------|
G#|-----------------------------------------------|
 E|-10~-------------------------------------------|
 B|-x---------------------------------------------|
F#|-8~---------------0(Push down on whammy bar)---|
 B|------------------0----------------------------|



0:05   "It will take the treasures invested in your soul"
C#|----------------------------------------------------------------|
G#|-----------------------------------------------3h5p3h5----------|
 E|----------------------------------------3h5p3h5-------3h5p3h5---|
 B|----------------------------------------------------------------|
F#|---8--8--000-000-000-000-000--7--7------------------------------|
 B|----00-0-000-000-000-000-000---00-0-0-00------------------------|
       ** * *** *** *** *** ***   ** * * **


0:10
C#|------------------------------------------|
G#|------------------------------------------|
 E|------------------------------------------|
 B|------------------------------------------|
F#|---8--8--000-000-000-000-000--7--7--000-0-|
 B|----00-0-000-000-000-000-000---00-0-000-0-|
       ** * *** *** *** *** ***   ** * *** *



0:16   "From the depths of the untread..."
C#|-------------------------------------------|
G#|-------------------------------------------|
 E|-------------------------------------------|
 B|-------------------------------------------|
F#|---8--8--000-00---000-000--7--7--000--00---|
 B|----00-0-000-00---000-000---00-0-000--00---|
       ** * *** **   *** ***   ** * ***  **



0:21
C#|-------------------------------------------------------------------|
G#|-------------------------------------------------------------------|
 E|-------------------------------------------------------------------|
 B|-------------------------------------------------------------------|
F#|---8--8--000-000-000-000-000--7--7-7-----0(push down on whammy bar)|
 B|----00-0-000-000-000-000-000---00-0-0----0-------------------------|
       ** * *** *** *** *** ***   ** * *




0:27   "To turn sand into glass..."
C#|----------------------------------------------|
G#|----------------------------------------------|
 E|----------------------------------------------|
 B|----------------------------------------------|
F#|-0000-000-1-0----00-0000-1-0--00/5-5-5\1-1-1--|
 B|-0000-000-1-0----00-0000-1-0--00/5-5-5\1-1-1--|
    **** ***        ** ****      **



0:33
C#|----------------------------------------------|
G#|----------------------------------------------|
 E|----------------------------------------------|
 B|----------------------------------------------|
F#|-00000000-1-0---00-0000-1-0--00/3-3-3/8-8-8---|
 B|-00000000-1-0---00-0000-1-0--00/3-3-3/8-8-8---|
    ********       ** ****      **



0:41   "The death of the sapian..." 
C#|------------------------------------------|
G#|------------------------------------------|
 E|------------------------------------------|
 B|------------------------------------------|
F#|-0000-1-0----00-0000-1-0--00/5-5-5\1-1-1--|
 B|-0000-1-0----00-0000-1-0--00/5-5-5\1-1-1--|
    ****        ** ****      **


0:47
C#|-----------------------------------------------------|
G#|-----------------------------------------------------|
 E|----------------9~~br--------------------------------|
 B|----------------x------------------------------------|
F#|-00000000-1-0---7~~br--00-0000-1-0--00/3-3-3/8-8-8---|
 B|-00000000-1-0----------00-0000-1-0--00/3-3-3/8-8-8---|
    ********              ** ****      **




0:54  "Destroyer of worlds..."
C#|---------------------------|
G#|---------------------------|
 E|--7~---9~---5~---7~---10~--|
 B|--x----x----x----x----x----|
F#|--5~---7~---3~---5~---8~---|
 B|---------------------------|




1:05   "Obscene is the waste of this earth..." 
C#|-----------------------------------------------------------------------|
G#|-----------------------------------------------------------------------|
 E|-----------------------------------------------------------------------|
 B|-----------------------------------------------------------------------|
F#|--8--8--8--8--8-8--7--7--7--7--7-7---8"--7"--8"--12"-10"-8"-5~--7~-----|
 B|---00-00-00-00-0-0--00-00-00-00-0-0------------------------------------|
      ** ** ** ** * *  ** ** ** ** * *



1:15    "We yearn for wings and lungs with air..."
C#|----------------------------------------------------------------|
G#|-----------------------------------------------3h5p3h5----------|
 E|----------------------------------------3h5p3h5-------3h5p3h5---|
 B|----------------------------------------------------------------|
F#|---8--8--000-000-000-000-000--7--7------------------------------|
 B|----00-0-000-000-000-000-000---00-0-0-00------------------------|
       ** * *** *** *** *** ***   ** * * **



1:21   "As our reign on earth comes to an end..."
C#|------------------------------------------|
G#|------------------------------------------|
 E|------------------------------------------|
 B|------------------------------------------|
F#|---8--8--000-000-000-000-000--7--7--000-0-|
 B|----00-0-000-000-000-000-000---00-0-000-0-|
       ** * *** *** *** *** ***   ** * *** *


1:26  "Suicide in mind, for a death before our time..."
C#|-------------------------------------------|
G#|-------------------------------------------|
 E|-------------------------------------------|
 B|-------------------------------------------|
F#|---8--8--000-00---000-000--7--7--000--00---|
 B|----00-0-000-00---000-000---00-0-000--00---|
       ** * *** **   *** ***   ** * ***  **


1:31   "The corruption flow is our fatal crime..."
C#|-------------------------------------------------------------------|
G#|-------------------------------------------------------------------|
 E|-------------------------------------------------------------------|
 B|-------------------------------------------------------------------|
F#|---8--8--000-000-000-000-000--7--7-7-----0(push down on whammy bar |
 B|----00-0-000-000-000-000-000---00-0-0----0-slower this time)-------|
       ** * *** *** *** *** ***   ** * *  

Slows down to about 60 BPM or 1 Beat Per Second

1:38
C#|----------------------------------------------|
G#|----------------------------------------------|
 E|----------------------------------------------|
 B|----------------------------------------------|
F#|-0000-000-1-0----00-0000-1-0--00/5-5-5\1-1-1--|
 B|-0000-000-1-0----00-0000-1-0--00/5-5-5\1-1-1--|
    **** ***        ** ****      **




1:47
C#|----------------------------------------------|
G#|----------------------------------------------|
 E|----------------------------------------------|
 B|----------------------------------------------|
F#|-00000000-1-0---00-0000-1-0--00/3-3-3/8-8-8---|
 B|-00000000-1-0---00-0000-1-0--00/3-3-3/8-8-8---|
    ********       ** ****      **

2 Second Pause

1:57
C#|---------------------------------------------|
G#|---------------------------------------------|
 E|---------------------------------------------|
 B|---------------------------------------------|
F#|-0000000-1-0----00-0000-1-0--00/5-5-5\1-1-1--|
 B|-0000000-1-0----00-0000-1-0--00/5-5-5\1-1-1--|
    *******        ** ****      **


2:05
C#|-----------------------------------------------------|
G#|-----------------------------------------------------|
 E|----------------9~~br--------------------------------|
 B|----------------x------------------------------------|
F#|-00000000-1-0---7~~br--00-0000-1-0--00/3-3-3/8-8-8---|
 B|-00000000-1-0----------00-0000-1-0--00/3-3-3/8-8-8---|
    ********              ** ****      **

Speeds back up to normal speed

2:14
C#|---------------------------|
G#|---------------------------|
 E|--7~---9~---5~---7~---10~--|
 B|--x----x----x----x----x----|
F#|--5~---7~---3~---5~---8~---|
 B|---------------------------|



2:24
C#|-----------------------------------------------------------------------|
G#|-----------------------------------------------------------------------|
 E|-----------------------------------------------------------------------|
 B|-----------------------------------------------------------------------|
F#|--8--8--8--8--8-8--7--7--7--7--7-7---8"--7"--8"--12"-10"-8"-5~--7~-----|
 B|---00-00-00-00-0-0--00-00-00-00-0-0------------------------------------|
      ** ** ** ** * *  ** ** ** ** * *

Techno Interlude...Guitar Resumes at 3:15

3:15
C#|---------------------------------------------|
G#|---------------------------------------------|
 E|---------------------------------------------|
 B|---------------------------------------------|
F#|10-10-10-10-12-12-12-12-7-7-7-7-10-10-10-10--|
 B|--0--0--0--0--0--0--0--0-0-0-0-0--0--0--0--0-|
     *  *  *  *  *  *  *  * * * * *  *  *  *  *
C#|------------------------------------|
G#|------------------------------------|
 E|------------------------------------|
 B|------------------------------------|
F#|-5-5-5-5-8-8-8-8-5-5-5-5-8-8-7-7----|
 B|--0-0-0-0-0-0-0-0-0-0-0-0-0-0-0-0---|
     * * * * * * * * * * * * * * * *


3:26
C#|-----------------------------------------------|
G#|-----------------------------------------------|
 E|-----------------------------------------------|
 B|-----------------------------------------------|
F#|10-10-10-10-12-12-12-12-7-7-7-7-10-10-10-10----|
 B|--0--0--0--0--0--0--0--0-0-0-0-0--0--0--0--0---|
     *  *  *  *  *  *  *  * * * * *  *  *  *  *
C#|-------------------------------------------|
G#|-------------------------------------------|
 E|-------------------------------------------|
 B|-------------------------------------------|
F#|-12"-8"-10"-8"-7"-8"-12"-8"-10"-8"-7"-8"---|
 B|-------------------------------------------|


3:36
C#|---------------------------------------------|
G#|---------------------------------------------|
 E|---------------------------------------------|
 B|---------------------------------------------|
F#|10-10-10-10-12-12-12-12-7-7-7-7-10-10-10-10--|
 B|--0--0--0--0--0--0--0--0-0-0-0-0--0--0--0--0-|
     *  *  *  *  *  *  *  * * * * *  *  *  *  *
C#|------------------------------------|
G#|------------------------------------|
 E|------------------------------------|
 B|------------------------------------|
F#|-5-5-5-5-8-8-8-8-5-5-5-5-8-8-7-7----|
 B|--0-0-0-0-0-0-0-0-0-0-0-0-0-0-0-0---|
     * * * * * * * * * * * * * * * *



3:46
C#|---------------------------------------------|
G#|---------------------------------------------|
 E|---------------------------------------------|
 B|---------------------------------------------|
F#|10-10-10-10-12-12-12-12-7-7-7-7-10-10-10-10--|
 B|--0--0--0--0--0--0--0--0-0-0-0-0--0--0--0--0-|
     *  *  *  *  *  *  *  * * * * *  *  *  *  *
C#|------------------------------------|
G#|------------------------------------|
 E|------------------------------------|
 B|------------------------------------|
F#|-5-5-5-5-8-8-8-8-5-5-5-5-8-8-7-7----|
 B|--0-0-0-0-0-0-0-0-0-0-0-0-0-0-0-0---|
     * * * * * * * * * * * * * * * *

Another Interlude...Guitar doesn't resume til 4:37


4:37
C#|-----------------------------------------------|
G#|-----------------------------------------------|
 E|-----------------------------------------------| x8 (fades out)
 B|-----------------------------------------------|
F#|-0-0-00000---7"-8"--0-0-00000-10h12p10-8h10p8--|
 B|-0-0-00000----------0-0-00000------------------|
    * * *****          * * *****


Thats it...if you got any questions/comments/concerns/smart remarks
email me at john.boyer15@yahoo.com

Tap to rate this tab
 
# A B C D E F G H I J K L M N O P Q R S T U V W X Y Z