Song name
# A B C D E F G H I J K L M N O P Q R S T U V W X Y Z

Animosity - Fake Blood tab

Fuck all da lazy guys who don’t want to make this shit…oh well… im gonna make this shit!.
Rafa_rg5@hotmail.com!


Just lead  guitar...

d|-----|  |----------------------------------------------------------------|
a|-----|  |----------------------------------------------------------------|
f|-----|  |----------------------------------------------------------------|
c|-----|  |-1-3-2-3-----0-1-3-2-3-2-3----0-1-3-2-3-2-3----0-1-3-2-3-2-3----|
g|-12/-|  |-1-3-2-3-2*^-0-1-3-2-3-2-3-2*-0-1-3-2-3-2-3-2*-0-1-3-2-3-2-3----|
c|-12/-|  |-1-3-2-3-----0-1-3-2-3-2-3----0-1-3-2-3-2-3----0-1-3-2-3-2-3----|
           . . . .      . . . . . . .    . . . . . . .    . . . . . . .

     then…Both guitars. I’m not sure about da palm mute but is 90% good.

d|----------------------------------------------------------------|
a|----------------------------------------------------------------|
f|----------------------------------------------------------------|
c|-1-3-2-3-----0-1-3-2-3-2-3----0-1-3-2-3-2-3----0-1-3-5-3-5-2-3-1|   x4
g|-1-3-2-3-2*^-0-1-3-2-3-2-3-2*-0-1-3-2-3-2-3-2*-0-1-3-5-3-5-2-3-1|
c|-1-3-2-3-----0-1-3-2-3-2-3----0-1-3-2-3-2-3----0-1-3-5-3-5-2-3-1|
   . . . .     . . . . . . .    . . . . . . .    . . .

rate it!!!!

d|-------------------------|this part is faster…
a|-------------------------|da 2424 is hammer on and 1313 too.
f|-------------------------|
c|-------------------------|x8
g|-------------------------|
c|-0-0-2424-0-0-1313-0-0-2-|

rate it!!!!

d|------------------|
a|------------------|
f|------------------|
c|------------------|
g|---------------2*-|
c|-0-1-4-0-2-4-0----|
   . . . . . . .

 rate it!!!!

d|--------------------------------------------------------|
a|--------------------------------------------------------|
f|--------------------------------------------------------|
c|--------------------------------------------------------|
g|-5-3-0--------------------5-3-0-------2-4-0-------3-1---|
c|-------3--0-0-0-0-0-0-0-0-------3-0-0-------2-0-0-----1-|
            . . . . . . . .         . .         . .


rate it!!!!


d|----------|      |----------------|       |----------|
a|----------|      |----------------|       |----------|
f|----------|  x3  |----------------|       |----------|  x3
c|-000--000-|      |-0r*pick slide*-|       |-000--000-|
g|-000--000-|      |-0r*pick slide*-|       |-000--000-|
c|-000--000-|      |-0r*pick slide*-|       |-000--000-|
   ...  ...                                   ...  ...

rate it!!!!

d|--------------------------------------------------------|
a|--------------------------------------------------------|
f|--------------------------------------------------------|
c|--------------------------------------------------------|
g|-5-3-0--------------------5-3-0-------2-4-0-------3-1---|
c|-------3--0-0-0-0-0-0-0-0-------3-0-0-------2-0-0-----1-|
            . . . . . . . .         . .         . .

rate it!!!!

d|--------------------------------------------------------|
a|--------------------------------------------------------|
f|--------------------------------------------------------| x6 I think…
c|--------------------------------------------------------|
g|--------------------------------------------------------|
c|-2-3-0-1-4-0-2-3-0-1-4-0-2-3-0-1-4-0-2-3-0-1-4-0--------|
            . . . . . . . .         . .         . .


This is fake blood send me a message if da tab is wrong or something like that but I 
is pretty fucking good so plz rate it!!!!
Peace 4 everyone…
Rafa_rg5@hotmail.com
I make it here…send me message if all u guys want da tab in guitar pro…

/ = Slide
* = AH
. = Palm Mute
Tap to rate this tab
 
# A B C D E F G H I J K L M N O P Q R S T U V W X Y Z