Guitaretab - guitar tabs
Song name
# A B C D E F G H I J K L M N O P Q R S T U V W X Y Z

Anjetora - Century Pride tab

So here?s the awesome song century pride, by the equally awesome

*AnjetorA*

[ Tab from: http://www.guitaretab.com/a/anjetora/35961.html ]
----------------------------------------------------------------------------|
----------------------------------------------------------------------------|
----------------------------------------------------------------------------|
------------------------------7---6-----------------------------------------|
----5---7---8---7-----7---8-------------------------------------------------|
--0---0---0---0---0-0---0---0---0-------------------------------------------|

--------------- -------------------------------------------------------------|
--------------- -------------------------------------------------------------|
--------------- ----------5-----------4--------------------------------------|
--------------- ----------5-----------4--------------------------------------|
--5---7---8---7- -3-3-3-3-3---2-2-2-2-2--------------------------------------|
0---0---0---0--- ------------------------------------------------------------|

tabbed by Estebar

email: Rasmusrh@ofir.dk
Advertisement will be closed in 10 seconds