Song name
# A B C D E F G H I J K L M N O P Q R S T U V W X Y Z

Anna Bergendahl - The Army chords

Highlighted       Show chord diagrams
Song: The Army
Artist: Anna Bergendahl
Album: Yours Sincerely
Email: david.ahlstroem@gmail.com
Tabbed by: Go0fy

Tuning: standard
Chords used:
D2:  000230
A:   002220
E:   022100
D:   000232
Bm:  224432
F#m: 244222

Intro: D2 - A(see tab)

Verse1: D2 - A(see tab)x2 - E - Bm -D ( fingerpick D if you want)

      D2   A                D2    A                 E   ...and Bm - D 
e|----0----0--0--------------0----0--0--------------0---------------------|
B|----3----2--0h2-3-2-0------3----2--0h2-3-2-0------0---------------------|
G|----2----2--2---------2----2----2--2---------2----1---------------------|
D|----0----2--2--------------0----2--2--------------2---------------------|
A|----0----0--0--------------0----0--0--------------2---------------------|
E|----0----0--0--------------0----0--0--------------0---------------------|

Pre-chorus (or whatever it's called): Bm - E x2

Chorus: D2 - A - E - F#m - D2 - A - E - F#m - A - D2 - F#m - A - D2

Verse2: D2 - A(see tab)x2 - E - Bm - D

      D2   A                D2    A                 E   ...and Bm - D
e|----0----0--0-------0------0----0--0-------0------0---------------------|
B|----3----2--0h2p-0---------3----2--0h2p-0---------0---------------------|
G|----2----2--2------2-------2----2--2------2-------1---------------------|
D|----0----2--2--------------0----2--2--------------2---------------------|
A|----0----0--0--------------0----0--0--------------2---------------------|
E|----0----0--0--------------0----0--0--------------0---------------------|

Pre-chorus: Bm - E x2

Chorus: D2 - A - E - F#m - D2 - A - E - F#m - A - D2 - F#m - A - D2

Ending: D2 - A(see tab)x2 - E - Bm - D



(I know second part of verse1 have some verse2 tabs in it. Just play as you 
like.). Comment and rate pls.
Tap to rate this tab
# A B C D E F G H I J K L M N O P Q R S T U V W X Y Z