Song name
# A B C D E F G H I J K L M N O P Q R S T U V W X Y Z

Anna Blue - So Alone tab

Hi, I'm Gabriel I really like this song by Anna Blue but I never saw any electric
guitar tabs so here is mine.

Its Half Step Down.

x = palm mute

So Alone - Anna Blue


___________________________________________

 My face against the window pane
 A tear for every drop of rain

[Part1]
Eb]------------------------------------------------------------]
Bb]------------------------------------------------------------]
Gb]--------------4-----3-----2-----------4-----3-----2---------]
Db]--------2-----4-----3-----2-----2-----4-----3-----2-----2---] X2
Ab]\\\\----2-----2-----1-----0-----2-----2-----1-----0-----2---]
Eb]\\\\----0-----------------------0-----------------------0---]
  (Pickslide only once)

[Start Playing Part1]
 I am so lonely and so sad
 You're the reason that I'm feeling bad
 I am so lonely and so sad
 Living in a dream I've never had.....

[Part2]
Eb]------------------------------------------]
Bb]------------------------------------------]
Gb]------------444444----333333----222222----]
Db]--222222----444444----333333----222222----]   x2
Ab]--222222----222222----111111----000000----]
Eb]--000000----------------------------------]
     xxxxxx    xxxxxx    xxxxxx    xxxxxx

[Start playing Part2]
 My face against the window pane
 A tear for every drop of rain
 I'm living like already I have died
 Have died.....

[Part3]
Eb]---------------------------------------------------------]
Bb]---------------------------------------------------------]
Gb]----------------444444-4\\----333333-3\\----222222-2\\---]
Db]--222222-2\\----444444-4\\----333333-1\\----222222-2\\---]   x2
Ab]--222222-2\\----222222-2\\----111111-1\\----000000-0\\---]
Eb]--000000-0\\---------------------------------------------]
     xxxxxx        xxxxxx        xxxxxx       xxxxxx

[Start playing Part3]
 Emptiness a present past
 A silent scream to shatter glass
 I have to go; it's time for me to fly


[Part1]
Eb]-----------------------------------------------------|
Bb]-----------------------------------------------------|
Gb]--------4-----3-----2-----------4-----3-----2--------|
Db]--2-----4-----3-----2-----2-----4-----3-----2-----2--|
Ab]--2-----2-----1-----0-----2-----2-----1-----0-----2--|
Eb]--0-----------------------0-----------------------0--|

[Start Playing Part1]
 I am so lonely and so sad
 You're the reason that I'm feeling bad
 I am so lonely and so sad
 Living in a dream I've never had.....


(Wake me with your kiss)


 Who will care if I'm not here?
 If suddenly I disappeared?
 No one's gonna notice it at all

(Guitar Pause)

[Part1]
Eb]-----------------------------------------------------|
Bb]-----------------------------------------------------|
Gb]--------4-----3-----2-----------4-----3-----2--------|
Db]--2-----4-----3-----2-----2-----4-----3-----2-----2--|
Ab]--2-----2-----1-----0-----2-----2-----1-----0-----2--|
Eb]--0-----------------------0-----------------------0--|


 Dying flowers in my hand
 I'm vanishing from where I stand
 It isn't yet too late to get the truth

(This part I will figure out since I had the music video and not the full song)


[Part1]
Eb]-----------------------------------------------------]
Bb]-----------------------------------------------------]
Gb]--------4-----3-----2-----------4-----3-----2--------]
Db]--2-----4-----3-----2-----2-----4-----3-----2-----2--] X5
Ab]--2-----2-----1-----0-----2-----2-----1-----0-----2--]
Eb]--0-----------------------0-----------------------0--]

[Start Playing Part1]
 I am so lonely and so sad
 You're the reason that I'm feeling bad
 I am so lonely and so sad
 Living in a dream I've never had.....

(Wake me with your kiss)
Tap to rate this tab
 
# A B C D E F G H I J K L M N O P Q R S T U V W X Y Z