Song name
# A B C D E F G H I J K L M N O P Q R S T U V W X Y Z

Anna Nalick - Catalyst tab

[INTRO]
--------3--------3--------2--------2--------0--------0--------2--------2--|
-----0--------0--------0--------0--------0--------0--------0--------0-----|
--------------------------------------------------------------------------|
--5--------5--------4--------4--------2--------2--------4--------4--------|
--------------------------------------------------------------------------|
--------------------------------------------------------------------------|

[VERSE 1]
--------3--------3--------2--------2--------0--------0--------2--------2--|
-----0--------0--------0--------0--------0--------0--------0--------0-----|
--------------------------------------------------------------------------|
--5--------5--------4--------4--------2--------2--------4--------4--------|
--------------------------------------------------------------------------|
--------------------------------------------------------------------------|

  [L.A Lights, They don't shine quite as bright as in the...]


--------------------------------------------3--------3--------3--------3--|
--------------------------0--------0-----0--------0--------0--------0-----|
--------0--------0-----0--------0-----------------------------------------|
-----2--------2-----1--------1--------5--------5--------5--------5--------|
--3--------3--------------------------------------------------------------|
--------------------------------------------------------------------------|

  [movies...still wanna go?]


--------3--------3--------2--------2--------0--------0--------2--------2--|
-----0--------0--------0--------0--------0--------0--------0--------0-----|
--------------------------------------------------------------------------|
--5--------5--------4--------4--------2--------2--------4--------4--------|
--------------------------------------------------------------------------|
--------------------------------------------------------------------------|

  [There's something here, in the way, in the way that we're constantly...]


--------------------------------------|
--------------------------0--------0--|
--------0--------0-----0--------0-----|
-----2--------2-----1--------1--------|
--3--------3--------------------------|
--------------------------------------|

  [moving...reminds you of...]


--------3--------3--------2--------2--------0--------0--------2--------2--|
-----0--------0--------0--------0--------0--------0--------0--------0-----|
--------------------------------------------------------------------------|
--5--------5--------4--------4--------2--------2--------4--------4--------|
--------------------------------------------------------------------------|
--------------------------------------------------------------------------|

  [home...]

[CHORUS]
--------------------------------------------------------------------------|
--------------------------------------------------------------------------|
--------0-------0--------0--------0---------------------------0-----------|
-----2-------2--------4--------4-----------2--------2------------------0--|
--3-------3--------5--------5-----------2--------2--------2---------2-----|
-------------------------------------0--------0--------3---------3--------|

  [So you're taking these pills for to fill up your soul and you're drinking them down,
cheap alcohol,]


--------------------------------------------------------------------------|
--------------------------------------------------------------------------|
--------0-------0--------0--------0---------------------------0-----------|
-----2-------2--------4--------4-----------2--------2------------------0--|
--3-------3--------5--------5-----------2--------2--------2---------2-----|
-------------------------------------0--------0--------3---------3--------|

  [and I'd be inclined to be yours for the taking, in part of this terrible mess that
making with me,]


---------------------------------------|
---------------------------0--------0--|
--------0---------0-----0--------0-----|
-----2--------2------1--------0--------|
--3--------3---------------------------|
---------------------------------------|

  [I'm the Catalyst]

[VERSE 2]
--------3--------3--------2--------2--------0--------0--------2--------2--|
-----0--------0--------0--------0--------0--------0--------0--------0-----|
--------------------------------------------------------------------------|
--5--------5--------4--------4--------2--------2--------4--------4--------|
--------------------------------------------------------------------------|

--------3--------3--------2--------2--------0--------0--------2--------2--|
-----0--------0--------0--------0--------0--------0--------0--------0-----|
--------------------------------------------------------------------------|
--5--------5--------4--------4--------2--------2--------4--------4--------|
--------------------------------------------------------------------------|
--------------------------------------------------------------------------|

  [When you say love, theres a simple chemical...]


--------------------------------------------3--------3--------3--------3--|
--------------------------0--------0-----0--------0--------0--------0-----|
--------0--------0-----0--------0-----------------------------------------|
-----2--------2-----1--------1--------5--------5--------5--------5--------|
--3--------3--------------------------------------------------------------|
--------------------------------------------------------------------------|

  [...reaction...can't say I agree...cause my...]


--------3--------3--------2--------2--------0--------0--------2--------2--|
-----0--------0--------0--------0--------0--------0--------0--------0-----|
--------------------------------------------------------------------------|
--5--------5--------4--------4--------2--------2--------4--------4--------|
--------------------------------------------------------------------------|
--------------------------------------------------------------------------|

  [...chemical, ye-yeah, left me a beautiful disaster...


--------------------------------------|
--------------------------0--------0--|
--------0--------0-----0--------0-----|
-----2--------2-----1--------1--------|
--3--------3--------------------------|
--------------------------------------|

  [...still loves all I...]


--------3--------3--------2--------2--------0--------0--------2--------2--|
-----0--------0--------0--------0--------0--------0--------0--------0-----|
--------------------------------------------------------------------------|
--5--------5--------4--------4--------2--------2--------4--------4--------|
--------------------------------------------------------------------------|
--------------------------------------------------------------------------|

[...see.]

[CHORUS]
--------------------------------------------------------------------------|
--------------------------------------------------------------------------|
--------0-------0--------0--------0---------------------------0-----------|
-----2-------2--------4--------4-----------2--------2------------------0--|
--3-------3--------5--------5-----------2--------2--------2---------2-----|
-------------------------------------0--------0--------3---------3--------|

  [So I'm taking these pills for to fill up my soul and I'm drinking them down, with 
alcohol,]


--------------------------------------------------------------------------|
--------------------------------------------------------------------------|
--------0-------0--------0--------0---------------------------0-----------|
-----2-------2--------4--------4-----------2--------2------------------0--|
--3-------3--------5--------5-----------2--------2--------2---------2-----|
-------------------------------------0--------0--------3---------3--------|

  [and you'd be inclined to be mine for the taking, in part of this terrible mess that
making with you,]


---------------------------------------------3--------3--------3--------3-|
---------------------------0--------0-----0--------0--------0--------0----|
--------0---------0-----0--------0----------------------------------------|
-----2--------2------1--------0--------5--------5--------5--------5-------|
--3--------3--------------------------------------------------------------|
--------------------------------------------------------------------------|

  [You're the Catalyst]

[BRIDGE]
--------------------------------------------------------------------------|
--------------------------------------------------------------------------|
--------0-------0--------0--------0---------------------------0-----------|
-----2-------2--------4--------4-----------2--------2------------------0--|
--3-------3--------5--------5-----------2--------2--------2---------2-----|
-------------------------------------0--------0--------3---------3--------|

  [You'll be the vein. You'll be the pain. You'll be the scar.]


--------------------------------------------------------------------------|
--------------------------------------------------------------------------|
--------0-------0--------0--------0---------------------------0-----------|
-----2-------2--------4--------4-----------2--------2------------------0--|
--3-------3--------5--------5-----------2--------2--------2---------2-----|
-------------------------------------0--------0--------3---------3--------|

  [You'll be the road, rollin' below, the wheels of a car and all of you're...]


----------------------------------------------------------------------------|
-------------------------------------------0--------0--------0--------0-----|
--------0-------0--------0--------0-----0--------0--------0--------0--------|
-----2-------2--------4--------4-----2--------1--------0--------------------|
--3-------3--------5--------5-----------------------------------4-----------|
----------------------------------------------------------------------------|

  [thoughts on, God, Don't know if I'm strong enought now.


--------------------------------------|
--------------------------------------|
--------0--------0--------0--------0--|
-----2--------2--------4--------4-----|
--3--------3--------5--------5--------|
--------------------------------------|

  [You'll be the vein. You'll be the pain. You'll be the...]

[VERSE 3]
--------3--------3--------2--------2--------0--------0--------2--------2--|
-----0--------0--------0--------0--------0--------0--------0--------0-----|
--------------------------------------------------------------------------|
--5--------5--------4--------4--------2--------2--------4--------4--------|
--------------------------------------------------------------------------|
--------------------------------------------------------------------------|


--------3--------3--------2--------2--------0--------0--------2--------2--|
-----0--------0--------0--------0--------0--------0--------0--------0-----|
--------------------------------------------------------------------------|
--5--------5--------4--------4--------2--------2--------4--------4--------|
--------------------------------------------------------------------------|
--------------------------------------------------------------------------|

  [...Catalyst]


--------3--------3--------2--------2--------0--------0--------2--------2--|
-----0--------0--------0--------0--------0--------0--------0--------0-----|
--------------------------------------------------------------------------|
--5--------5--------4--------4--------2--------2--------4--------4--------|
--------------------------------------------------------------------------|
--------------------------------------------------------------------------|

  [These L.A. lights, no no, they don't shine quite as bright as back in...]


-----------------------------------3--|
--------------------------0-------0---|
--------0--------0-----0---------0----|
-----2--------2-----0-----------0-----|
--3--------3-------------------2------|
------------------------------3-------|

  [...Frisco, do you wanna go? Still wanna go?]
Tap to rate this tab
 
# A B C D E F G H I J K L M N O P Q R S T U V W X Y Z