Song name
# A B C D E F G H I J K L M N O P Q R S T U V W X Y Z

Anna Nalick - Wreck Of The Day tab

Hey guys this is my first tab so bear with me but i believe this is very accurate and 
is done fully by ear.

This song is very simple so it should be easy to play

well, Enjoy this great song =)

Wreck of the day
Anna Nalick


Intro:Play Once

e|-------------------------------------------------------------------------|
B|----------------------------------------------0------0-------------------|
G|--------0-----0-------------------0----0----0------0---------------------|
D|------2-----2-------0-----0-----1----1----2------2-----------------------|
A|---3------3-------2-----2-----2----2-------------------------------------|
E|----------------3-----3--------------------------------------------------|

Verse 1:Play Twice

e|-------------------------------------------------------------------------|
B|----------------------------------------------------0-----0--------------|
G|--------0-----0-----------------------0----0------0-----0----------------|
D|------2-----2---------0-----0-------1----1------2-----2------------------|
A|---3------3---------2-----2-------2----2---------------------------------|
E|------------------3-----3------------------------------------------------|

Chorus:Play Twice

e|-------------------------------------------------------------------------|
B|---------------------------------------0-----0-----0-----0---------------|
G|--------0-----0--------0-----0-------0-----0-----0-----0-----------------|
D|------2-----2--------1-----1-------2-----1-----0-------------------------|
A|---3------3--------2-----2---------------------------4-------------------|
E|-------------------------------------------------------------------------|

this is after you play that twice

e|-------------------------------------------------------------------------|
B|-------------------------------------------------------------------------|
G|------0-----0---------0------0-------0-----0-----------------------------|
D|----2-----2---------2------2-------4-----4-------------------------------|
A|--3-----3---------4------4-------5-----5---------------------------------|
E|-------------------------------------------------------------------------|

Verse 2:play twice

e|-------------------------------------------------------------------------|
B|----------------------------------------------------0-----0--------------|
G|--------0-----0-----------------------0----0------0-----0----------------|
D|------2-----2---------0-----0-------1----1------2-----2------------------|
A|---3------3---------2-----2-------2----2---------------------------------|
E|------------------3-----3------------------------------------------------|


Chorus:play twice


e|-------------------------------------------------------------------------|
B|---------------------------------------0-----0-----0-----0---------------|
G|--------0-----0--------0-----0-------0-----0-----0-----0-----------------|
D|------2-----2--------1-----1-------2-----1-----0-------------------------|
A|---3------3--------2-----2---------------------------4-------------------|
E|-------------------------------------------------------------------------|

this is after you played twice

e|-------------------------------------------------------------------------|
B|-------------------------------------------------------------------------|
G|------0-----0---------0------0-------0-----0-----------------------------|
D|----2-----2---------2------2-------4-----4-------------------------------|
A|--3-----3---------4------4-------5-----5---------------------------------|
E|-------------------------------------------------------------------------|


Solo:


   Guitar 1

e|--12--7--5-7-7-8--7--8--10--3--5--2---12--7--5--7--8--7--8--10--3-5-3-5-7|
B|-------------------------------------------------------------------------|
G|-------------------------------------------------------------------------|
D|-------------------------------------------------------------------------|
A|-------------------------------------------------------------------------|
E|-------------------------------------------------------------------------|
 |
 | Guitar 2
 |
e|-------------------------------------------------------------------------|
B|------0-----0-----0-----0------------------------------------------------|
G|----0-----0-----0-----0---------0-----0-----0-----0----------------------|
D|--2-----1-----0---------------2-----2-----1-----1------------------------|
A|--------------------4-------3-----3-----2-----2--------------------------|
E|-------------------------------------------------------------------------|


Bridge:play twice


e|-------------------------------------------------------------------------|
B|------0-----0-----0-----0------------------------------------------------|
G|----0-----0-----0-----0---------0-----0-----0-----0----------------------|
D|--2-----1-----0---------------2-----2-----1-----1------------------------|
A|--------------------4-------3-----3-----2-----2--------------------------|
E|-------------------------------------------------------------------------|


Interlude:play twice

(this is when she starts humming/whatever)

e|------------------------------|
B|------------------------------|
G|------0-----0-----------------|
D|----2-----2--------0-----0----|
A|--3-----3--------2-----2------|
E|---------------3-----3--------|


e|------------------------------------------------------------------------|
B|------------------------------------------------------------------------|
G|------0-----0---------0------0-------0-----0----------------------------|
D|----2-----2---------2------2-------4-----4------------------------------|
A|--3-----3---------4------4-------5-----5--------------------------------|
E|------------------------------------------------------------------------|


Verse 3:play twice


e|-------------------------------------------------------------------------|
B|----------------------------------------------------0-----0--------------|
G|--------0-----0-----------------------0----0------0-----0----------------|
D|------2-----2---------0-----0-------1----1------2-----2------------------|
A|---3------3---------2-----2-------2----2---------------------------------|
E|------------------3-----3------------------------------------------------|


Chorus:play twice


e|-------------------------------------------------------------------------|
B|---------------------------------------0-----0-----0-----0---------------|
G|--------0-----0--------0-----0-------0-----0-----0-----0-----------------|
D|------2-----2--------1-----1-------2-----1-----0-------------------------|
A|---3------3--------2-----2---------------------------4-------------------|
E|-------------------------------------------------------------------------|

this is after you played twice

e|-------------------------------------------------------------------------|
B|-------------------------------------------------------------------------|
G|------0-----0---------0------0-------0-----0-----------------------------|
D|----2-----2---------2------2-------4-----4-------------------------------|
A|--3-----3---------4------4-------5-----5---------------------------------|
E|-------------------------------------------------------------------------|

outro:play twice


e|-------------------------------------------------------------------------|
B|------0-----0-----0-----0------------------------------------------------|
G|----0-----0-----0-----0---------0-----0-----0-----0----------------------|
D|--2-----1-----0---------------2-----2-----1-----1------------------------|
A|--------------------4-------3-----3-----2-----2--------------------------|
E|-------------------------------------------------------------------------|

Verse 1:

Driving away from the wreck of the day and the lights always red in the rearview
Desperately close to a coffin of hope, Id cheat destiny just to be near you

Chorus:

And if this is giving up, well im giving up
If this is giving up, but im giving up, giving up
on love... on love...

Verse 2:

Driving away from the wreck of the day, and im thinking 'bout calling on Jesus,
'Cuz love doesnt hurt, so I know Im not falling in love, im just falling to pieces

Chorus:

And if this is giving up, well im giving up
If this is giving up, well im giving up, giving up
on love... on love...

Bridge:

Maybe I'm not up for being a victim of love
All my resistance will never be distance enough

Verse 3:

Driving away from the wreck of the day,and it's finally quiet in my head
Driving alone, yeah im finally on my way home to the comfort of my bed

Chorus:

And if this is giving up, im giving up
If this is giving up, im giving up...
on love... on love...

Submitted by Abe Chung
Email me or Aim me if you have suggestions
Email:Midgetabe@yahoo.com
Aim:Fightingham93
Tap to rate this tab
# A B C D E F G H I J K L M N O P Q R S T U V W X Y Z