Guitaretab - guitar tabs
Song name
# A B C D E F G H I J K L M N O P Q R S T U V W X Y Z

Anna Nalick - Catalyst tab

-------------------------------------------------------------------------------
			     Catalyst - Anna Nalickr
I noticed the other tab had the bass notes completely wrong, it was like they didn't 
try to tab them. Well anyway, here they are.
-------------------------------------------------------------------------------
Tabbed by:
[Guitar]*ninja*

Email:
t.rav08@gmail.

Tuning: Standard

Ok obviously here you can either use the 5th fret on D or Open G
as well as replace the Open B with 5th g, this is how i play it, do what you like its 
same notes, have fun.

Time signature: 3/4
Tempo: 80-90 i usually play it around 85
Key: D [two sharps C and F]
Mezzo Piano most of the way through


Intro:
   >           >           >           >
e|-----3-----3-----2-----2-----0-----0-----2-----2---------------------------|
B|---0-----0-----0-----0-----0-----0-----0-----0-----------------------------|
G|---------------------------------------------------------------------------|
D|-5-----5-----4-----4-----2-----2-----4-----4-------------------------------|
A|---------------------------------------------------------------------------|
E|---------------------------------------------------------------------------|

Verse
Ok honestly the 3 2 open parts are a little questionable in some places but it fits with 
music and sounds fine so i didn't go too far into looking into it. If you think its 
send me an email and i'll go back and give it a good listening too.

e|-----3-----3-----2-----2-----0-----0-----2-----2---------------------------|
B|---0-----0-----0-----0-----0-----0-----0-----0-------------------0-----0---|
G|-----------------------------------------------------0-----0---0-----0-----|
D|-5-----5-----4-----4-----2-----2-----4-----4-------2-----2---1-----1-------|
A|-------------------------------------------------3-----3-------------------|
E|---------------------------------------------------------------------------|

e|-----3----3----3----3----3----3----2----2----0----0----2----2------------|
B|---0----0----0----0----0----0----0----0----0----0----0----0--------------|
G|-------------------------------------------------------------------------|
D|-5----5----5----5----5----5----4----4----2----2----4----4----------------|
A|-------------------------------------------------------------------------|
E|-------------------------------------------------------------------------|


e|---------------------------3----3----2----2----0----0----2----2----------|
B|----------------0----0---0----0----0----0----0----0----0----0------------|
G|-----0----0---0----0-----------------------------------------------------|
D|---2----2---1----1-----5----5----4----4----2----2----4----4--------------|
A|-3----3------------------------------------------------------------------|
E|-------------------------------------------------------------------------|

Chorus
e|-------------------------------------------------------------------------|
B|-------------------------------------------------------------------------|
G|-----0----0----0----0-------------------------0----0----0----0-----------|
D|---2----2----2----2------0----0----0----0---2----2----2----2-------------|
A|-3----3----2----2------2----2----2----2---3----3----2----2---------------|
E|---------------------3----3----2----2------------------------------------|

e|------------------------------------------------3----3----2----2---------|
B|-------------------------------------0----0---0----0----0----0-----------|
G|--------------------------0----0---0----0--------------------------------|
D|-----0----0----0----0---2----2---1----1-----5----5----4----4-------------|
A|---2----2----2----2---3----3---------------------------------------------|
E|-3----3----2----2--------------------------------------------------------|
[ Tab from: http://www.guitaretab.com/a/anna-nalick/60832.html ]
e|-----0----0----2----2----------------------------------------------------|
B|---0----0----0----0------------------------------------------------------|
G|-------------------------------------------------------------------------|
D|-5----5----4----4--------------------------------------------------------|
A|-------------------------------------------------------------------------|
E|-------------------------------------------------------------------------|

Repeat Verse

Chorus part II (cut short before bridge)
e|-------------------------------------------------------------------------|
B|-------------------------------------------------------------------------|
G|-----0----0----0----0-------------------------0----0----0----0-----------|
D|---2----2----2----2------0----0----0----0---2----2----2----2-------------|
A|-3----3----2----2------2----2----2----2---3----3----2----2---------------|
E|---------------------3----3----2----2------------------------------------|

e|------------------------------------------------3----3----3----3---------|
B|-------------------------------------0----0---0----0----0----0-----------|
G|--------------------------0----0---0----0--------------------------------|
D|-----0----0----0----0---2----2---1----1-----5----5----5----5-------------|
A|---2----2----2----2---3----3---------------------------------------------|
E|-3----3----2----2--------------------------------------------------------|

Bridge/Outro
e|-------------------------------------------------------------------------|
B|-------------------------------------------------------------------------|
G|-----0----0----0----0-------------------------0----0----0----0-----------|
D|---2----2----2----2------0----0----0----0---2----2----2----2-------------|
A|-3----3----2----2------2----2----2----2---3----3----2----2---------------|
E|---------------------3----3----2----2------------------------------------|

e|-------------------------------------------------------------------------|
B|-----------------------------------------------0----0----0----0----------|
G|--------------------------0----0----0----0---0----0----0----0------------|
D|-----0----0----0----0---2----2----2----2---1----1----1----1--------------|
A|---2----2----2----2---3----3----2----2-----------------------------------|
E|-3----3----2----2--------------------------------------------------------|

e|---------------------------3----3----2----2----0----0----2----2----------|
B|-------------------------0----0----0----0----0----0----0----0------------|
G|-----0----0----0----0----------------------------------------------------|
D|---2----2----2----2----5----5----4----4----2----2----4----4--------------|
A|-3----3----2----2--------------------------------------------------------|
E|-------------------------------------------------------------------------|

e|-----3----3----2----2----0----0----2----2----3----3----2----2------------|
B|---0----0----0----0----0----0----0----0----0----0----0----0--------------|
G|-------------------------------------------------------------------------|
D|-5----5----4----4----2----2----4----4----5----5----4----4----------------|
A|-------------------------------------------------------------------------|
E|-------------------------------------------------------------------------|

e|-----0----0----2----2-----------------------------3----3-----------------|
B|---0----0----0----0-------------------0----0----0----0-------------------|
G|--------------------------0----0----0----0-------------------------------|
D|-2----2----4----4-------2----2----1----1------5----5---------------------|
A|----------------------3----3---------------------------------------------|
E|-------------------------------------------------------------------------|

| > Slight Accent
| ^ Heavy Accent

Well thats it, if  you have any questions i have my email at the top. Like i
said before play around with the finger position and the frets you dont HAVE to play the 
on D you can always make it an open G same thing as with the open B you could go ahead 
make that a % on G and play the 5 on D... its all up to you.

hope you guys enjoyed my first tab, please rate. thanks =)
[Guitar]*ninja*

===============================================================================
Related for Catalyst tab