Song name
# A B C D E F G H I J K L M N O P Q R S T U V W X Y Z

Anna Ternheim - My Heart Still Beats For You chords

Highlighted       Show chord diagrams
Em
Hard to believe how people move
C
Falling out of love with you
Em                             C
Tearing down all the walls and love, the chaos


Em
Thought again, of driving by
    C
The place we meet, you and I
Em                               C
Where it started, how we lived, together always


   C            D          Em
My heart, still beats, for you
   C            D          Em
My heart, still beats, for you
      C         D      C
After all, it's always you


Em - C - Em - C


Em
You came down, hard that summer
C
I started to dance, remember
Em                              C
Everything, not a thought of you
                      Em     C
And I lied alot too
                      Em     C
Maybe to forget you


   C            D          Em
My heart, still beats, for you
   C            D          Em
My heart, still beats, for you
   C            D          Em
My heart, still beats, for you
   C            D          Em
My heart, still beats, for you
      C         D      C
After all, it's always you
       Em       D      C
I come back too
       Em       D       C
I come back too you
       Em       D       C
I come back too you
       Em       D       C
I come back too you


Em
-----------------------------0-----------------|
----------------0----------------0-----------0-|
----------0------------0---------------0-------|
-----------------------------------------------|
-----------------------------------------------|
-0---------------------------------------------|

C
---------------------------0-------------------|
---------------1----------------1-----------1--|
---------0-----------0----------------0--------|
-----------------------------------------------|
-3---------------------------------------------|
-----------------------------------------------|

D
---------------------------2-------------------|
---------------3-----------------3-----------3-|
---------2-----------2-----------------2-------|
-0---------------------------------------------|
-----------------------------------------------|
-----------------------------------------------|
Tap to rate this tab
 
# A B C D E F G H I J K L M N O P Q R S T U V W X Y Z