Song name
# A B C D E F G H I J K L M N O P Q R S T U V W X Y Z

Anna Waronker - Nothing Personal tab

"Nothing Personal"
Backseatgoodbye-Chad Sugg
Standard Tuning
http://www.backseatgoodbye.com


Intro/Verse/Bridge
e--3--0--0--2-|
B--3--3--1--3-|
G--0--0--0--2-|
D--0--4--2--0-|
A--2--5--3----|
E--3----------|

Chorus
e--3--0--3--2-|
B--3--1--3--3-|
G--0--0--0--2-|
D--0--2--0--0-|
A--2--3--2----|
E--3-----3----|
Tap to rate this tab
# A B C D E F G H I J K L M N O P Q R S T U V W X Y Z