Song name
# A B C D E F G H I J K L M N O P Q R S T U V W X Y Z

Annabelle Chvostek - Racing With The Sun chords

Highlighted       Show chord diagrams
-----------------------------------------------------------------------------
			     RACING WITH THE SUN - Annabelle Chvostek (www.annabelle.org)
-----------------------------------------------------------------------------
Tabbed by: Docteur Al
Email: bigal.fmrh2k@gmail.com

Tuning: Standard

   |[Em]               |     [Em6]      [Em]     |
Get your day's work [Em]done         [Em6]      [Em]
Get your day's work [B7]done         [B7/G]      [B7]
Or soon you'll [Em]be                [A2]      [Em] 
Racing with the sun.             [B7]      [Em]

Make your plans today            [Em6]      [Em]
'Fore the evening's [B7]on           [B7/G]      [B7]
Or you'll end [Em]up                 [A2]      [Em] 
Racing with the sun              [B7]      [Em]

{c:chorus}
Hard, hard, times                [Em7]      [Em]
That you've had                  [Em7]      [Em]
Hard, hard times                 [Em7]      [Em]
But today you're mighty glad     [Em7]      [Em]

'Cause your work's all through    [Em6]      [Em]
And your battle's [B7]won             [B7/G]      [B7]
Now you'll never never [Em]be         [A2]      [Em] 
Racing with the sun               [B7]      [Em]

{c:solo}
[Em]         [Em6]      [Em]      [B7]    [D7]     [F7]    [G#7]
[Em]         [A2]      [Em]      [Em]         [B7]      [Em]
[Em]         [Em6]      [Em]     [B7]          [B7/G]      [B7]
[Em]         [A2]      [Em]      [Em]         [B7]      [Em]   

Hard, hard, times                [Em7]      [Em]
That you've had                  [Em7]      [Em]
Hard, hard times                 [Em7]      [Em]
But today you're mighty glad     [Em7]      [Em]

'Cause your work's all through    [Em6]      [Em]
And your battle's [B7]won             [B7/G]      [B7]
Now you'll never never [Em]be         [A2]      [Em] 
Racing with the sun               [B7]      [Em]
Racing with the sun               [B7]      [Em]
Racing with the [b/e]su-   [b/d#]uh-   [b/d]uh-   [c#/e]uh-   [b/e]un
[B7]    [Em]

Notes:
The run up the 7ths is just B7 shape with 3 semi-tones between each chord and the 
b-string held open
The small letters in the chords refer to notes rather than chords

Chords used:
    Em   Em6  Em7  B7   B7/F# D7   F7   G#7  A2
e|------------3----2----2-----5----8----11-----------------------------------|
B|-------2----3----0----0-----0----0----0------------------------------------|
G|-----------------2----2-----5----8----11---2-------------------------------|
D|--2----2----2----1----1-----4----7----10---2-------------------------------|
A|--2----2----2----2----------5----8----11-----------------------------------|
E|----------------------2-----x----x----x----x-------------------------------|
Tap to rate this tab
# A B C D E F G H I J K L M N O P Q R S T U V W X Y Z