Guitaretab - guitar tabs
Song name
# A B C D E F G H I J K L M N O P Q R S T U V W X Y Z

Annasophia Robb - Keep Your Mind Wide Open tab

    Fm#     E       A			     	          
E||------------------------------------|  
B||-----2-------2----------------------|  
G||---2---2---2---2-----6--------9-----|  x3
D||-4-------4-------4/7---7-7/11---11--|   
A||------------------------------------|   
E||------------------------------------|  
    GM7
E||-----2-------2-------2---------2----|  
B||---3---3---3---3---3---3---3---2----|  
G||-4-------4-------4-------4---4-2----|  
D||------------------------------------|   
A||------------------------------------|   
E||------------------------------------|  




Verse 1


Fm#      D    A    

Have you ever seen the sky

   Fm#        D         A       
so beautiful, colorful, wide and wonderful

Fm#      D    A     
Have you ever felt the sun shine

Fm#            D              A             
so brilliantly, raining down, over you and me

GM7                 Bm  
Have you ever wanted more

E
wanted more


[ Tab from: http://www.guitaretab.com/a/annasophia-robb/90730.html ]
Chorus
A             E                  Bm                
You've got to keep your mind wide open

       D
All the possibilities

A             E                  Bm       
You've got to live with your eyes open

D
Believe in what you see



Verse 2

Fm#      D      A
Think of all the days you've wasted

Fm#	 D	    A
worrying, wondering, hopelessly hoping

Fm#      D      A    
Think of all the time ahead

Fm#            D           
don't hesitate, contemplate

A  	       
No it's not too late

GM7                 Bm
Have you ever wanted more

D			      E
Don't you know there's so much more



Chorus
 A            E                  Bm           
You've got to keep your mind wide open

       D
All the possibilities

A             E                  Bm
You've got to live with your eyes open

D
Believe in what you see


Fm-D-A x2


Bm	   
Tomorrow's horizons

E
Full of surprises

Bm
Don't let them take your ..

E
dreams away

-------------------------------