Song name
# A B C D E F G H I J K L M N O P Q R S T U V W X Y Z

Annie Mall - We Command God tab

www.anniemall.net
www.facebook.com/anniemallband


Intro
-----------------------------|
-----------------------------|
-----------------------------|
-3---------------------------|
---5-5-5--5-------0-3--------|
------------0-3-5------------|

Verse:
Dm

Pre-chorus
Intro + C#, C

Chorus:
Bb, G, Dm x2
C, Bb

Bridge:
--------------------------------------------------------|
--------------------------------------------------------|
--------------------------------------------------------|
--------------------------------------------3-5-3-------|
-3-5-5-5-3-0--3-5-5-5-3-0--3-5-5-5-3-0--3-5-------5-----|
--------------------------------------------------------|
Tap to rate this tab
# A B C D E F G H I J K L M N O P Q R S T U V W X Y Z