Song name
# A B C D E F G H I J K L M N O P Q R S T U V W X Y Z

Annie Mall - Where Are The Tyrants Made tab

www.anniemall.net
www.facebook.com/anniemallband

Verse:

-------------------------------------------------------|
-------------------------------------------------------|
------------------------------------------10-12--10-12-|
-------------------------------------------------------|
-5-5--5-5-5--5-5--5-5-5--5-5--5-5-5--5-5--8--10--8--10-|
-0-0--0-0-0--0-0--0-0-0--0-0--0-0-0--0-0---------------|

Chorus:
A, Dm, F, G

--------------------------------|
--------------------------------|
--------------------------------|
----------------9------7--------|
----------10-12---8-10----------|
-0--0-0-0-----------------------|

Bridge:
----------------------------|
----------------------------|
-7--10--7--5--5-7-----------|
------------------7~--------|
----------------------------|
----------------------------|
Tap to rate this tab
# A B C D E F G H I J K L M N O P Q R S T U V W X Y Z