Song name
# A B C D E F G H I J K L M N O P Q R S T U V W X Y Z

Annie Mall - Friday tab

www.anniemall.net
www.facebook.com/anniemallband

Intro/Verse/Outro
Em, G/F#, G, D, D/D#
Em, G/F#, G, B, A

Chorus:
B, D, Em, G, G/F#

-----------------------------------------------------------------|
-----------------------------------------------------8~----------|
----------9----7-----------------7---9----6-7-6-7-9--------------|
-----9------9----9-------------9---9---9-------------------------|
7-10---10----------10-7~----10-----------------------------------|
-----------------------------------------------------------------|

--------------------------------------------------------------------|
--------------------------------------------------------------------|
-9--------9---7-----------------7----9----6-7-6---------------------|
---9----9---9---9-------------9---9----9--------9-7~----------------|
-----10-----------10-7~----10---------------------------------------|
--------------------------------------------------------------------|
Tap to rate this tab
# A B C D E F G H I J K L M N O P Q R S T U V W X Y Z