Song name
# A B C D E F G H I J K L M N O P Q R S T U V W X Y Z

Annihilator - Operation Annihilation tab

-------------------------------------------------------------------------------
			     Operation Annihilation - Annihilator
-------------------------------------------------------------------------------
Tabbed by: Jamey Sudduth
Email:xwordxofxsorrowx@aol.com

this is just the main riff of the song. no solo sorry

| /  slide up
| \  slide down
| h  hammer-on
| p  pull-off
| ~  vibrato
| +  harmonic
| x  Mute note
| =  hold note
===============================================================================


Tuning:DADGBe (Drop D)

e|---------------------------------------------------------------------------------|
B|---------------------------------------------------------------------------------|
G|---------------------------------------------------------------------------------|
D|---------------------------------------------------------------------------------|
A|--3h4-0-0--3h4-0-0--3h4-0--3h4-0-0--3h4-0-0--3h4--5==----------------------------|
D|--3h4-0-0--3h4-0-0--3h4-0--3h4-0-0--3h4-0-0--3h4--5==----------------------------|

then theres a high pitched sound i think this is close? i think he uses an effect to get the sound
e|-4-4---------------------------------------------------------------------------|
B|-6-6---------------------------------------------------------------------------|
G|-5-5---------------------------------------------------------------------------|
D|-------------------------------------------------------------------------------|
A|-------------------------------------------------------------------------------|
D|-------------------------------------------------------------------------------|
Tap to rate this tab
# A B C D E F G H I J K L M N O P Q R S T U V W X Y Z