Song name
# A B C D E F G H I J K L M N O P Q R S T U V W X Y Z

Annihilator - Clown Parade tab

-------------------------------------------------------------------------------
			 Clown Parade - Annihilator

-------------------------------------------------------------------------------
Tabbed by:youngncy
Email:

Tuning:D-A-D-G-B-E (LOW TO HIGH)

{INTRO}-> For the intro the 12-13-10-12 progression is right but you would have to play 

along with the song for the rythem I was using a live version and couldent quite make out 

the rythem!

e|---------------------------------------------------------------------------|
B|---------------------------------------------------------------------------|
G|---------------------------------------------------------------------------|
D|---------------------------------------------------------------------------|
A|---------------------------------------------------------------------------|
D|-12-0-0-0-0--12-0--12-0-0-0--13-0-13-0-0-0--10-0-10-0-0-0---12-------------|
 
{Riff A}-> Riff A is the same thing as the intro listen to the song to find how many times 

you play this riff.



{Riff B}-> This tiff was the tricky one this riff is not perfect but i tried this is the 

riff were its a desend. I will mw revisions to this when i figure it out for sure.

e|---------------------------------------------------------------------------|
B|---------------------------------------------------------------------------|
G|---14--14---12--12---10-10---9--9------------------------------------------|
D|---14--14---12--12---10-10---9--9------------------------------------------|
A|---12--12---10--10---8--8----7--7------------------------------------------|
D|---12--12---10--10---8--8----7--7------------------------------------------|

{SOLO}-> I will figure this out soon.

So that is pretty much it. Listen to the song and put all the parts were they go I will make 

a neater tab i will try to get the actual song to not a live version. Other than I hope you 

guys like what ive got. also if you guys have any problems pm youngncy thx!

| /  slide up---\
| \  slide down  \ 
| h  hammer-on    \
| p  pull-off      >  ILL ADD THIS STUFF LATER!  
| ~  vibrato      /
| +  harmonic    /
| x  Mute note--/
===============================================================================
Tap to rate this tab
 
# A B C D E F G H I J K L M N O P Q R S T U V W X Y Z