Guitaretab - guitar tabs
Song name
# A B C D E F G H I J K L M N O P Q R S T U V W X Y Z

Annihilator - Torn tab

Annihilator - Torn

tabbed by 
ol753_357lo@yahoo.co.uk

Tuning - D A D G B E


Both Gtrs
     PM   PM   PM   PM    PM|    PM   PM
|----------------------------------------------|
|----------------------------------------------|
|----------------------------------------------|
|----------------------------------------------|
|-3----3----3----3----3h5-----3----3----3-3----|
|-0--0-0--0-0--0-0--0-0---0-0-0--0-0--0-0-0----|


|--------------|
|--------------|
|--------------|
|--------------|
|--------------|
|-0-5p0-3p0----|


     PM   PM   PM   PM    PM|    PM   PM
|----------------------------------------------|
|----------------------------------------------|
|----------------------------------------------|
|----------------------------------------------|
|-3----3----3----3----3h5-----3----3----3-3----|
|-0--0-0--0-0--0-0--0-0---0-0-0--0-0--0-0-0----|


|--------------|
|--------------|
|--------------|
|--------------|
|--------------|
|-0-3p0-5p0----|


Both Gtrs
play 4 times
    PM|   PM|   PM|   PM|       PM  PM|   PM|   PM|
|--------------------------------------------------------------------|
|--------------------------------------------------------------------|
|--------------------------------------------------------------------|
|--------------------------------------------------------------------|
|-3-----3-----3-----3-----3h5-5---3-----3-----3-----0-3-5-6-5-3-0----|
|-0-0-0-0-0-0-0-0-0-0-0-0-0---0-0-0-0-0-0-0-0-0-0-0-0-3-5-6-5-3-0----|


Gtr 3
play twice
|------------------------------------------------------|
|------------------------------------------------------|
|-7--9--9h10-----7--9--9h10--10S12--10-9-9h10--9--7----|
|------------------------------------------------------|
|------------------------------------------------------|
|------------------------------------------------------|


Gtr 4
joins 2nd time
|----------------------------------------------------------------|
|----------------------------------------------------------------|
|-10--12--12h14-----10--12--12h14--14h15--14-12-12h14--12--10----|
|----------------------------------------------------------------|
|----------------------------------------------------------------|
|----------------------------------------------------------------|


Verse
Both Gtrs
play 4 times
    PM|   PM|   PM|   PM|       PM  PM|   PM|   PM|
|--------------------------------------------------------------------|
|--------------------------------------------------------------------|
|--------------------------------------------------------------------|
|--------------------------------------------------------------------|
|-3-----3-----3-----3-----3h5-5---3-----3-----3-----0-3-5-6-5-3-0----|
|-0-0-0-0-0-0-0-0-0-0-0-0-0---0-0-0-0-0-0-0-0-0-0-0-0-3-5-6-5-3-0----|


Chorus
Both Gtrs
    PM|   PM    PM  PM|   PM    PM  PM|   PM    PM  PM|   PM    PM
|--------------------------------------------------------------------|
|--------------------------------------------------------------------|
|--------------------------------------------------------------------|
|-7-----7---7-7---6-----6---6-6---6-----6---6-6---6-----6---6-6------|
|-5-----5---5-5---6-----6---6-6---5-----5---5-5---3-----3---3-3------|
|-0-0-0-0-0-0-0-0-6-6-6-6-6-6-6-6-5-5-5-5-5-5-5-5-3-3-3-3-3-3-3-3----|


    PM|   PM    PM  PM|   PM    PM
|---------------------------------------------------------------|
|---------------------------------------------------------------|
|---------------------------------------------------------------|
|-------7---7-7---6-----6---6-6---------------------------------|
|-0-----5---5-5---6-----6---6-6---5--5-5--5-5--5-5--5-5--3-5----|
|-0-0-0-0-0-0-0-0-6-6-6-6-6-6-6-6-5--5-5--5-5--5-5--5-5--3-5----|


    PM|   PM    PM  PM|   PM    PM  PM|   PM    PM  PM|   PM    PM
|--------------------------------------------------------------------|
|--------------------------------------------------------------------|
|--------------------------------------------------------------------|
|-------7---7-7---6-----6---6-6---6-----6---6-6---6-----6---6-6------|
|-0-----5---5-5---6-----6---6-6---5-----5---5-5---3-----3---3-3------|
|-0-0-0-0-0-0-0-0-6-6-6-6-6-6-6-6-5-5-5-5-5-5-5-5-3-3-3-3-3-3-3-3----|


    PM|   PM    PM  PM|   PM    PM  PM--------------|
|---------------------------------------------------------------------|
|---------------------------------------------------------------------|
|---------------------------------------------------------------------|
|-------7---7-7---6-----6---6-6---------------------------------------|
|-0-----5---5-5---6-----6---6-6---1-----------------------------------|
|-0-0-0-0-0-0-0-0-6-6-6-6-6-6-6-6-1-1-1-1-1-1-1-1-1-1-1-1-1-1-1-1-1---|


Both Gtrs
play twice
    PM|   PM|   PM|   PM|       PM  PM|   PM|   PM|
|--------------------------------------------------------------------|
|--------------------------------------------------------------------|
|--------------------------------------------------------------------|
|--------------------------------------------------------------------|
|-3-----3-----3-----3-----3h5-5---3-----3-----3-----0-3-5-6-5-3-0----|
|-0-0-0-0-0-0-0-0-0-0-0-0-0---0-0-0-0-0-0-0-0-0-0-0-0-3-5-6-5-3-0----|


Gtr 3
|------------------------------------------------------|
|------------------------------------------------------|
|-7--9--9h10-----7--9--9h10--10S12--10-9-9h10--9--7----|
|------------------------------------------------------|
|------------------------------------------------------|
|------------------------------------------------------|


Gtr 4
|----------------------------------------------------------------|
|----------------------------------------------------------------|
|-10--12--12h14-----10--12--12h14--14h15--14-12-12h14--12--10----|
|----------------------------------------------------------------|
|----------------------------------------------------------------|
|----------------------------------------------------------------|


Verse 2
Both Gtrs
play twice
    PM|   PM|   PM|   PM|       PM  PM|   PM|   PM|
|--------------------------------------------------------------------|
|--------------------------------------------------------------------|
|--------------------------------------------------------------------|
|--------------------------------------------------------------------|
|-3-----3-----3-----3-----3h5-5---3-----3-----3-----0-3-5-6-5-3-0----|
|-0-0-0-0-0-0-0-0-0-0-0-0-0---0-0-0-0-0-0-0-0-0-0-0-0-3-5-6-5-3-0----|


Repeat Chorus


Both Gtrs
play 4 times, Gtr 3 Lead (to be added)
    PM|   PM|   PM|   PM|       PM  PM|   PM|   PM|
|--------------------------------------------------------------------|
|--------------------------------------------------------------------|
|--------------------------------------------------------------------|
|--------------------------------------------------------------------|
|-3-----3-----3-----3-----3h5-5---3-----3-----3-----0-3-5-6-5-3-0----|
|-0-0-0-0-0-0-0-0-0-0-0-0-0---0-0-0-0-0-0-0-0-0-0-0-0-3-5-6-5-3-0----|


Both Gtrs
    PM|   PM    PM  PM|   PM    PM  PM|   PM    PM  PM|   PM    PM
|--------------------------------------------------------------------|
|--------------------------------------------------------------------|
|--------------------------------------------------------------------|
|-7-----7---7-7---6-----6---6-6---6-----6---6-6---6-----6---6-6------|
|-5-----5---5-5---6-----6---6-6---5-----5---5-5---3-----3---3-3------|
|-0-0-0-0-0-0-0-0-6-6-6-6-6-6-6-6-5-5-5-5-5-5-5-5-3-3-3-3-3-3-3-3----|


    PM|   PM    PM  PM|   PM    PM
|---------------------------------------------------------------|
|---------------------------------------------------------------|
|---------------------------------------------------------------|
|-------7---7-7---6-----6---6-6---------------------------------|
|-0-----5---5-5---6-----6---6-6---5--5-5--5-5--5-5--5-5--3-5----|
|-0-0-0-0-0-0-0-0-6-6-6-6-6-6-6-6-5--5-5--5-5--5-5--5-5--3-5----|


    PM|   PM    PM  PM|   PM    PM  PM|   PM    PM  PM|   PM    PM
|--------------------------------------------------------------------|
|--------------------------------------------------------------------|
|--------------------------------------------------------------------|
|-------7---7-7---6-----6---6-6---6-----6---6-6---6-----6---6-6------|
|-0-----5---5-5---6-----6---6-6---5-----5---5-5---3-----3---3-3------|
|-0-0-0-0-0-0-0-0-6-6-6-6-6-6-6-6-5-5-5-5-5-5-5-5-3-3-3-3-3-3-3-3----|

[ Tab from: http://www.guitaretab.com/a/annihilator/151263.html ]
    PM|   PM    PM  PM|   PM    PM  PM--------------|
|---------------------------------------------------------------------|
|---------------------------------------------------------------------|
|---------------------------------------------------------------------|
|-------7---7-7---6-----6---6-6---------------------------------------|
|-0-----5---5-5---6-----6---6-6---1-----------------------------------|
|-0-0-0-0-0-0-0-0-6-6-6-6-6-6-6-6-1-1-1-1-1-1-1-1-1-1-1-1-1-1-1-1-1---|


Gtr 1, Gtr 2 accentuates parts
  PM|                             PM|
|--------------------------------------------------------------------|
|--------------------------------------------------------------------|
|--------------------------------------------------------------------|
|-------7-8-------5---------------------7-8-------5------------------|
|-----5-----6-5-3-------5-4-----------5-----6-5-3-------8-7----------|
|-0-0---------------0-3-----2-1-0-0-0---------------0-6-----5-3-0----|


  PM|
|------------------------------------|
|------------------------------------|
|------------------------------------|
|-------7-8-------5------------------|
|-----5-----6-5-3-------5-4----------|
|-0-0---------------0-3-----2-1-0----|


Gtr 1
  PM|                             PM|
|--------------------------------------------------------------------|
|--------------------------------------------------------------------|
|--------------------------------------------------------------------|
|-------7-8-------5---------------------7-8-------5------------------|
|-----5-----6-5-3-------5-4-----------5-----6-5-3-------8-7----------|
|-0-0---------------0-3-----2-1-0-0-0---------------0-6-----5-3-0----|


  PM|
|------------------------------------|
|------------------------------------|
|------------------------------------|
|-------7-8-------5------------------|
|-----5-----6-5-3-------5-4----------|
|-0-0---------------0-3-----2-1-0----|


Gtr 2
play 5 times
  PM------------------------|
|--------------------------------|
|--------------------------------|
|--------------------------------|
|--------------------------------|
|--------------------------------|
|-0--0-0-0--0-0-0--0-0-0--0-0----|


6th time
  PM----------------------------|
|----------------------------------|
|----------------------------------|
|----------------------------------|
|----------------------------------|
|----------------------------------|
|-\-\-\-\-\-\-\-\-\-\-\-\-\-\-\-\--|


Both Gtrs
  PM|                             PM|
|--------------------------------------------------------------------|
|--------------------------------------------------------------------|
|--------------------------------------------------------------------|
|-------7-8-------5---------------------7-8-------5------------------|
|-----5-----6-5-3-------5-4-----------5-----6-5-3-------8-7----------|
|-0-0---------------0-3-----2-1-0-0-0---------------0-6-----5-3-0----|


  PM|
|------------------------------------|
|------------------------------------|
|------------------------------------|
|-------7-8-------5------------------|
|-----5-----6-5-3-------5-4----------|
|-0-0---------------0-3-----2-1-0----|


  PM|
|----------------------------------------|
|----------------------------------------|
|----------------------------------------|
|-------7S8-----10S12------10S8----------|
|-----5-----6S8-------10S8------6S5------|
|-0-0-------------------------------0----|


Gtr 1
  PM|                             PM|
|--------------------------------------------------------------------|
|--------------------------------------------------------------------|
|--------------------------------------------------------------------|
|-------7-8-------5---------------------7-8-------5------------------|
|-----5-----6-5-3-------5-4-----------5-----6-5-3-------8-7----------|
|-0-0---------------0-3-----2-1-0-0-0---------------0-6-----5-3-0----|


  PM|
|------------------------------------|
|------------------------------------|
|------------------------------------|
|-------7-8-------5------------------|
|-----5-----6-5-3-------5-4----------|
|-0-0---------------0-3-----2-1-0----|


  PM|
|----------------------------------------|
|----------------------------------------|
|----------------------------------------|
|-------7S8-----10S12------10S8----------|
|-----5-----6S8-------10S8------6S5------|
|-0-0-------------------------------0----|


Gtr 2
  PM|                               PM|
|------------------------------------------------------------------------|
|------------------------------------------------------------------------|
|------------------------------------------------------------------------|
|-------10-11-------8---------------------10-11-------8------------------|
|-----8-------9-8-6-------5-4-----------8-------9-8-6-------8-7----------|
|-0-0-----------------0-3-----2-1-0-0-0-----------------0-6-----5-3-0----|


  PM|
|--------------------------------------|
|--------------------------------------|
|--------------------------------------|
|-------10-11-------8------------------|
|-----8-------9-8-6-------5-4----------|
|-0-0-----------------0-3-----2-1-0----|


  PM|
|-----------------------------------------------|
|-----------------------------------------------|
|-----------------------------------------------|
|-------10S12-------14S15-------14S12-----------|
|-----8-------10S12-------13S12-------10S8------|
|-0-0--------------------------------------0----|


Gtr 1, Gtr 2 accentuates parts
  PM|                             PM|
|--------------------------------------------------------------------|
|--------------------------------------------------------------------|
|--------------------------------------------------------------------|
|-------7-8-------5---------------------7-8-------5------------------|
|-----5-----6-5-3-------5-4-----------5-----6-5-3-------8-7----------|
|-0-0---------------0-3-----2-1-0-0-0---------------0-6-----5-3-0----|


  PM|
|------------------------------------|
|------------------------------------|
|------------------------------------|
|-------7-8-------5------------------|
|-----5-----6-5-3-------5-4----------|
|-0-0---------------0-3-----2-1-0----|


Repeat Verse 2
Play Chorus twice, Gtr 3 Lead (to be added)


Both Gtrs
plays to fade
    PM|   PM|   PM|   PM|       PM  PM|   PM|   PM|
|--------------------------------------------------------------------|
|--------------------------------------------------------------------|
|--------------------------------------------------------------------|
|--------------------------------------------------------------------|
|-3-----3-----3-----3-----3h5-5---3-----3-----3-----0-3-5-6-5-3-0----|
|-0-0-0-0-0-0-0-0-0-0-0-0-0---0-0-0-0-0-0-0-0-0-0-0-0-3-5-6-5-3-0----|


Gtr 3
plays to fade
|------------------------------------------------------|
|------------------------------------------------------|
|-7--9--9h10-----7--9--9h10--10S12--10-9-9h10--9--7----|
|------------------------------------------------------|
|------------------------------------------------------|
|------------------------------------------------------|


Gtr 4
plays to fade
|----------------------------------------------------------------|
|----------------------------------------------------------------|
|-10--12--12h14-----10--12--12h14--14h15--14-12-12h14--12--10----|
|----------------------------------------------------------------|
|----------------------------------------------------------------|
|----------------------------------------------------------------|


Tablature Legend
----------------
 h   - hammer-on
 p   - pull-off
 b   - bend
 pb  - pre-bend
 r   - bend release (if no number after the r, then release immediately)
 /\  - slide into or out of (from/to "nowhere")
 s   - legato slide
 S   - shift slide
  - natural harmonic
[n]  - artificial harmonic
n(n) - tapped harmonic
 ~   - vibrato
 tr  - trill
 T   - tap
 TP  - trem. picking
 PM  - palm muting
\n/  - tremolo bar dip; n = amount to dip
 \n  - tremolo bar down
 n/  - tremolo bar up
/n\  - tremolo bar inverted dip
 =   - hold bend; also acts as connecting device for hammers/pulls
 <>  - volume swell (louder/softer)
 x   - on rhythm slash represents muted slash
 o   - on rhythm slash represents single note slash

Misc Legend
-----------
 |  - bar
||  - double bar
||o - repeat start
o|| - repeat end
*|  - double bar (ending)
 :  - bar (freetime)
 $  - Segno
 &  - Coda
Tempo markers -  = BPM(8/16=s8/s16), where s8 = swing 8ths, s16 = swing 16ths

Related for Torn tab