Song name
# A B C D E F G H I J K L M N O P Q R S T U V W X Y Z

Annihilator - City Of Ice tab

-----------------------------------------------------------------
City Of Ice By ANNIHILATOR
-----------------------------------------------------------------
Tabbed by:Dany Mcintosh

Email:dany_mcintosh@hotmail.com

Tuning:Standard

E|---------------------------------------------------------------|
B|12b------------------------------------------------------------|
G|11b----9--9--9--9/--8----------------9-------------------------|
D|--------11-11-11------9/---11v/-\9h11--11p9--9---11p9----------|
A|----------------------------------------------11-----11p9/-----|
E|---------------------------------------------------------------|

E|---------------------------------------------------------------|
B|---------------------------------------------------------------|
G|---------------------------------------------------------------|
D|---------------------------------------------------------------|
A|/7h9vp(3x)-7v-6v-7v-6h7h9-9p7p6--6h7---------------------------|
E|-------------------------------------9---7v--------------------|

E|9--9--9----12-9--9------------------------6p9---------------------------|
B|12-10-9----12-10-9(3x)--11p9----9v-----6h7---6h7-9p7-7p9--6h8-9---------|
G|------------------------11p9----9v--6h8---------9---9---9----9-9-8v-6v--|
D|-----------------------------11-----------------------------------------|
A|------------------------------------------------------------------------|
E|------------------------------------------------------------------------|
                                   >3x
E|---------------------------------------------------------------|
B|---------------------------0-0--------0-0----------------------|
G|5v-6v-5v-6v--7p5-5h6/8v----9-8--8---8-8-8-8--------------------|
D|---------------------------------11-11----11-------------------|
A|---------------------------------------------------------------|
E|----------------------------------------------/slide-----------|

E|--------------------------------------------9----11----9-------|
B|---------------------------9-9-9-9-9/-------12b--14b---12b-----|
G|9-9-9--9-------------------9-9-9-9-9/--------------------------|
D|9-9-9--9-9h11v--9-------9----9-9-9-----------------------------|
A|-----------------9-10-11---------------------------------------|
E|---------------------------------------------------------------|

E|-11-----9-----9---12---9---------------------------------------|
B|-------------------------9-9v----------------------------------|
G|---11h13--9h11--11-------9-9v----------------------------------|
D|---------------------------------------------------------------|
A|---------------------------------------------------------------|
E|---------------------------------------------------------------|
  That's pretty much the whole solo, there's 2 last phrases but it's not hard to figure
might tab it later. This solo might not be 100% correct but it's pretty damn close i
you do the last lick, u have to keep your index finger down on the high E and B & G 
the same time.

Tablature Notation

h - hammer on
p - pull off
b - bend string up
r - release bend
/ - slide up
\ - slide down
v - vibrato (or ~)
t - right hand tap
x - play 'note' with heavy muting
Tap to rate this tab
 
# A B C D E F G H I J K L M N O P Q R S T U V W X Y Z