Song name
# A B C D E F G H I J K L M N O P Q R S T U V W X Y Z

Annihilator - 21 tab

Annihilator - 21

tabbed by 
ol753_357lo@yahoo.co.uk

Tuning - E A D G B E


Both Gtrs
  PM---------------------|
|-----------------------------|
|-----------------------------|
|-----------------------------|
|-----------------------------|
|-----------------------------|
|-2-0-2--------------2-0-2----|


Gtr 2
*articial harmonics slide
|-----------------------------|
|-----------------------------|
|---*-------------------------|
|-----------------------------|
|-----------------------------|
|-----------------------------|



Both Gtrs
play 8 times
          PM      PM  PM  PM|   PM|
|---|----------------------------------|
|---|----------------------------------|
|---|----------------------------------|
|---|----------------------------------|
|-4-|-2-4---8-7-5---4---4-----5--------|
|-2-|-0-2-0-6-5-3-0-2-0-2-0-0-3-0-0----|


Gtr 3
joins 5th time
play twice
          PM         PM    PM
|-------------------------------------------17-------16-------14----|
|-----14----16-14------14----16-14----------------------------------|
|-----14----16-14------14----16-14------/18----18S16----16S14-------|
|-/16----16---------16----16----------------------------------------|
|-------------------------------------------------------------------|
|-------------------------------------------------------------------|


Verse
Both Gtrs
play 4 times
          PM      PM  PM  PM|   PM|
|---|----------------------------------|
|---|----------------------------------|
|---|----------------------------------|
|---|----------------------------------|
|-4-|-2-4---8-7-5---4---4-----5--------|
|-2-|-0-2-0-6-5-3-0-2-0-2-0-0-3-0-0----|


Both Gtrs
        PM      PM  PM  PM|   PM|       PM      PM  PM  PM
|--------------------------------------------------------------------|
|--------------------------------------------------------------------|
|--------------------------------------------------------------------|
|-4-2-4---8-7-5---4---4-----5-----4-2-4---8-7-5---4---4---4-4-3-2----|
|-2-0-2-0-6-5-3-0-2-0-2-0-0-3-0-0-2-0-2-0-6-5-3-0-2-0-2-0-2-2-1-0-4--|
|-----------------------------------------------------------------2--|

      PM      PM  PM  PM|   PM|
|----------------------------------|
|----------------------------------|
|----------------------------------|
|----------------------------------|
|-2-4---8-7-5---4---4-----5-----4--|
|-0-2-0-6-5-3-0-2-0-2-0-0-3-0-0-2--|


          PM      PM  PM  PM|   PM|
|----------------------------------|
|----------------------------------|
|----------------------------------|
|----------------------------------|
|-2-4---8-7-5---4---4-----5--------|
|-0-2-0-6-5-3-0-2-0-2-0-0-3-0-0----|


Chorus
Both Gtrs
                              PM      PM  PM  PM|   PM|
|----------------------------------------------------------|
|-3-3-3----------------------------------------------------|
|-2-2-2----------------------------------------------------|
|-0-0-0------4---------------------------------------------|
|-0-0-0------2----2---3-4-2-4---8-7-5---4---4-----5--------|
|-----------------0---1-2-0-2-0-6-5-3-0-2-0-2-0-0-3-0-0----|


|-----------------|
|-3-3-3-----------|
|-2-2-2-----------|
|-0-0-0-----------|
|-0-0-0------2----|
|------------0----|


Both Gtrs
  PM---------------------|
|-----------------------------|
|-----------------------------|
|-----------------------------|
|-----------------------------|
|-----------------------------|
|-2-0-2--------------2-0-2----|


Gtr 2
*articial harmonics slide
|-----------------------------|
|-----------------------------|
|---*-------------------------|
|-----------------------------|
|-----------------------------|
|-----------------------------|


Repeat Verse


Chorus
Both Gtrs
play 3 times
                              PM      PM  PM  PM|   PM|
|----------------------------------------------------------|
|-3-3-3----------------------------------------------------|
|-2-2-2----------------------------------------------------|
|-0-0-0------4---------------------------------------------|
|-0-0-0------2----2---3-4-2-4---8-7-5---4---4-----5--------|
|-----------------0---1-2-0-2-0-6-5-3-0-2-0-2-0-0-3-0-0----|


4th time
|-----------------|
|-3-3-3-----------|
|-2-2-2-----------|
|-0-0-0-----------|
|-0-0-0------2----|
|------------0----|


Gtr 1
play twice, Gtr 2 joins 2nd time
  PM|   PM    PM|   PM
|-----------------------------------|
|-----------------------------------|
|-----4---4-2-----4---4-2------2----|
|-----4---4-2-----4---4-2------2----|
|--------------------------2-4------|
|-2-2---2-----2-2---2---------------|


Section 1
Both Gtrs
play twice
  PM|   PM    PM|   PM
|-----------------------------------|
|-----------------------------------|
|-----4---4-2-----4---4-2------2----|
|-----4---4-2-----4---4-2------2----|
|--------------------------2-4------|
|-2-2---2-----2-2---2---------------|


Both Gtrs
  PM|   PM    PM|   PM
|-------------------------------------------------------------------|
|-------------------------------------------------------------------|
|-----4---4-2-----4---4-2------2------------------------------------|
|-----4---4-2-----4---4-2------2-4-4-4-2-2-2-------2-2-2-----2-2----|
|--------------------------2-4---2-2-2-0-0-0-2-2-2-0-0-0-2-2-0-0----|
|-0-0---0-----0-0---0------------------------0-0-0-------0-0--------|


Both Gtrs
play twice
  PM|   PM    PM|   PM
|-----------------------------------|
|-----------------------------------|
|-----4---4-2-----4---4-2------2----|
|-----4---4-2-----4---4-2------2----|
|--------------------------2-4------|
|-2-2---2-----2-2---2---------------|


Both Gtrs
  PM|   PM    PM|   PM
|-------------------------------------------------------------------|
|-------------------------------------------------------------------|
|-----4---4-2-----4---4-2------2------------------------------------|
|-----4---4-2-----4---4-2------2-4-4-4-2-2-2-------2-2-2------------|
|--------------------------2-4---2-2-2-0-0-0-2-2-2-0-0-0-2-2-3-3----|
|-0-0---0-----0-0---0------------------------0-0-0-------0-0-1-1----|


Both Gtrs
Repeat Section 1
Gtr 3 Lead (to be added)


Both Gtrs
                              PM      PM  PM  PM|   PM|
|----------------------------------------------------------|
|-3-3-3----------------------------------------------------|
|-2-2-2----------------------------------------------------|
|-0-0-0------4---------------------------------------------|
|-0-0-0------2----2---3-4-2-4---8-7-5---4---4-----5--------|
|-----------------0---1-2-0-2-0-6-5-3-0-2-0-2-0-0-3-0-0----|


|-----------------|
|-3-3-3-----------|
|-2-2-2-----------|
|-0-0-0-----------|
|-0-0-0------2----|
|------------0----|


Both Gtrs
          PM      PM  PM  PM|   PM|
|---|----------------------------------|
|---|----------------------------------|
|---|----------------------------------|
|---|----------------------------------|
|-4-|-2-4---8-7-5---4---4-----5--------|
|-2-|-0-2-0-6-5-3-0-2-0-2-0-0-3-0-0----|


          PM      PM  PM  PM|   PM|
|----------------------------------|
|----------------------------------|
|----------------------------------|
|----------------------------------|
|-2-4---8-7-5---4---4-----5--------|
|-0-2-0-6-5-3-0-2-0-2-0-0-3-0-0----|


Chorus
Both Gtrs
play 3 times
                              PM      PM  PM  PM|   PM|
|----------------------------------------------------------|
|-3-3-3----------------------------------------------------|
|-2-2-2----------------------------------------------------|
|-0-0-0------4---------------------------------------------|
|-0-0-0------2----2---3-4-2-4---8-7-5---4---4-----5--------|
|-----------------0---1-2-0-2-0-6-5-3-0-2-0-2-0-0-3-0-0----|


4th time
|-----------------|
|-3-3-3-----------|
|-2-2-2-----------|
|-0-0-0-----------|
|-0-0-0------2----|
|------------0----|


Both Gtrs
play 12 times
          PM      PM  PM  PM|   PM|
|---|----------------------------------|
|---|----------------------------------|
|---|----------------------------------|
|---|----------------------------------|
|-4-|-2-4---8-7-5---4---4-----5--------|
|-2-|-0-2-0-6-5-3-0-2-0-2-0-0-3-0-0----|


Gtr 3
joins 5th time
play 4 times
          PM         PM    PM
|-------------------------------------------17-------16-------14----|
|-----14----16-14------14----16-14----------------------------------|
|-----14----16-14------14----16-14------/18----18S16----16S14-------|
|-/16----16---------16----16----------------------------------------|
|-------------------------------------------------------------------|
|-------------------------------------------------------------------|


Both Gtrs
play to fade, Gtr 3 Lead (to be added)
          PM      PM  PM  PM|   PM|
|---|----------------------------------|
|---|----------------------------------|
|---|----------------------------------|
|---|----------------------------------|
|-4-|-2-4---8-7-5---4---4-----5--------|
|-2-|-0-2-0-6-5-3-0-2-0-2-0-0-3-0-0----|



Tablature Legend
----------------
 h   - hammer-on
 p   - pull-off
 b   - bend
 pb  - pre-bend
 r   - bend release (if no number after the r, then release immediately)
 /\  - slide into or out of (from/to "nowhere")
 s   - legato slide
 S   - shift slide
  - natural harmonic
[n]  - artificial harmonic
n(n) - tapped harmonic
 ~   - vibrato
 tr  - trill
 T   - tap
 TP  - trem. picking
 PM  - palm muting
\n/  - tremolo bar dip; n = amount to dip
 \n  - tremolo bar down
 n/  - tremolo bar up
/n\  - tremolo bar inverted dip
 =   - hold bend; also acts as connecting device for hammers/pulls
 <>  - volume swell (louder/softer)
 x   - on rhythm slash represents muted slash
 o   - on rhythm slash represents single note slash

Misc Legend
-----------
 |  - bar
||  - double bar
||o - repeat start
o|| - repeat end
*|  - double bar (ending)
 :  - bar (freetime)
 $  - Segno
 &  - Coda
Tempo markers -  = BPM(8/16=s8/s16), where s8 = swing 8ths, s16 = swing 16ths

Tap to rate this tab
# A B C D E F G H I J K L M N O P Q R S T U V W X Y Z